Chicago - Someday Aug 29 1968 Guitar Chords

Chicago

album rock, art rock, classic rock, folk rock

Chords: Eb, Bb, A, Gb, Ebm7, Bbm7, Am7, Gb7, G, E, C, Absus4, Ab, Fm, Db, Gbmaj7, D, Gm, Gm/D, Cm, Gm/F, Am, F, Gsus4, Dsus4, Db-5, Bbmaj7-5, F#7, F#7/E, C7+9
Someday ( Aug 29, 1968 )

Tab/chart/transcription 
Peter Kruger
casparus60@yahoo.com


Bass ( no chords ):            
|Eb        |Bb      |A         |Gb        |

 EbaddA
|Eb        |Bb      |A         |Gb        |

..brass   
|Ebm7      |Bbm7    |Am7       |Gb7        |

|G         |E       |C          |          |


C                Gb
Would you look a round you now
    Absus4           Ab    Eb      
And tell me what you see
C             Gb
Faces full of hate and fear
Absus4        Ab    Eb
Faces full of me


Fm        Db 
   Do you feel the rumblings
Gbmaj7          Bb         D         Gm     /F   Eb
        As your head comes crumbling down
       Gm/D        
Do you know what I
|Cm      Eb    |G      E     |
mean


C                Gb
Run, you better, run you know
    Absus4         Ab    Eb
The end is getting near
C                Gb
Feel the wind of something hard
     Absus4              Ab     Eb
Come whistling past your ear


Fm          Db
    As they try to get you
Gbmaj7           Bb     D       Gm    Gm/F
        Where it will upset you down
Eb         Gm/D               
   Now you know what I
|Cm      Eb     |G     E      |
mean


Am                F
Someday you will see how long
           Gsus4           G     Ab
We've been waiting for the time
   Am                 F
To show you how we've died
         Gsus4           G      E . . . .            
To get together with you all 


Bass ( no chords ):            
|Eb           |Bb                 |A               |Gb            |

 EbaddA
|Eb           |Bb                 |A               |Gb            |

..brass   
|Ebm7         |Bbm7               |Am7             |Gb7           |

|Ebm7         |Dsus4   Db-5       |Bbmaj7-5   /A   |F#7  F#7/E     |


C                   Gb
Twist and turn your head around
      Absus4          Ab      Eb
'Till everything's unclear
C                   Gb
Twist and turn your arm around
  Absus4         Ab       Eb
Until it is not there


Fm             Db
    And they'd love to burn you
Gbmaj7       Bb       D         Gm     Gm/F
       Or at least to turn you around
Eb          Gm/D        
    Now you know what I
|Cm      Eb      |G     E       |
 mean


C              Gb
Can you look around you now
    Absus4            Ab     Eb
And tell us what's to be
C              Gb
Can you look inside yourself
    Absus4           Ab     Eb    
And tell us what you see


Fm         Db
    As you feel the rumblings
Gbmaj7         Bb         D         Gm   Gm/F
       As your head comes crumbling down
Eb         Gm/D
   And you know what I
|Cm      Eb      |G     E      |
mean


Am               F
Someday you will see how long
      Gsus4          G      Ab
We've waited for the time
   Am                 F
To show you how we've died
       Gsus4             G
To get together with you all


----------------|----------------|----------------|----------------|
----------------|----------------|----------------|----------------|
----------------|----------------|----------------|----------------|
----------------|----------------|----------------|----------------|
3--3-3----------|1--1-1----------|----------------|----------------|
----------------|----------------|2--2-2----------|0--0-0----------|

----------------|----------------|----------------|----------------|
1--1---1-1-1--1-|1--1---1-1-1--1-|1--1--1-1-1---1-|1--1---1-1-1--1-|
----------------|----------------|----------------|----------------|
----------------|----------------|----------------|----------------|
3--3-3----------|1--1-1----------|----------------|----------------|
----------------|----------------|2--2-2----------|0--0-0----------|



----------------|----------------|----------------|----------------|
1--1---1-1-1--1-|1--1---1-1-1--1-|1--1--1-1-1---1-|1--1---1-1-1--1-|
----------------|----------------|----------------|----------------|
----------------|----------------|----------------|----------------|
3--3-3----------|1--1-1----------|----------------|----------------|
----------------|----------------|2--2-2----------|0--0-0----------|



2--2---2-2-2--2-|2--2---2-2-2--2-|4--4--4-4-4---4-|4--4---4-4-4--4-|
1--1---1-1-1--1-|1--1---1-1-1--1-|2--2--2-2-2---2-|2--2---2-2-2--2-|
----------------|----------------|5--5--5-5-5---5-|5--5---5-5-5--5-|
----------------|----------------|----------------|----------------|
3--3-3----------|1--1-1----------|----------------|----------------|
----------------|----------------|2--2-2----------|0--0-0----------|


    C7+9
-----11----|
-----11----|
-----9-----|
-----10----|
-----10----|
-8-8-8-----|

More chords by Chicago: