Chancho en Piedra - Pascuero Guitar Chords

Chancho en Piedra

chilean indie, chilean rock, cumbia chilena, latin rock

Chords: Em, Dm, C#m, Bm5, F#m5, Em5, Bm, F#8, G#8, C#m5
a llegado la hora. no estoy triste, 
los negociantes me quitaran mas plata de mis bolsillos,
no importa espor el consumismo mundial!!!! 
feliz navidad a todos y ( y bien atrasada, 28-2-2003)

pa$cuero


intro

     Em       verso
                             x3
e----7--     ---------------
b----7--     ---------------
g----7--     ---------------
d-------     ---------------
a-------     ------5----(4)-
e-------     --7-7---7------
               lo de parentecis a la 3ra


pre-coro

    Dm      Em    Dm    Em    C#m   x2
e---5-------7-----5-----7-----9-----
b---6-------8-----6-----8-----10----
g---7-------9-----7-----9-----11----
d---7-------9-----7-----9-----11----
a---5-------7-----5-----7-----9-----
e---5-------7-----5-----7-----9-----


verso 2

                    x3
e-------------------
b-------------------
g-------------------
d-------------------
a------5-------(4)--
e-7-7-----7---------

pre-coro 2

    Dm      Em    Dm    Em    C#m   x2
e---5-------7-----5-----7-----9-----
b---6-------8-----6-----8-----10----
g---7-------9-----7-----9-----11----
d---7-------9-----7-----9-----11----
a---5-------7-----5-----7-----9-----
e---5-------7-----5-----7-----9-----

coro ( con quintas)

 Bm5       /  F#m5  Em5      Em5
no olvides de gastar el doble en navidad
Dm               Em
regalos que nos abren el cielo
 Bm 4      /  F#m5  Em5      Em5  
y nunca olvides de pagar tus cuotas de felizidad
Dm               Em    F#8
en la cuenta del viejo pa$cuero

bm5 .2 4 4...
fm5 .91111...
em5 .7 9 9...
dm  55 7 7 75
em  77 9 9 97
f#8 .9 .11...

verso 3

                    x3
e-------------------
b-------------------
g-------------------
d-------------------
a------5-------(4)--
e-7-7-----7---------


solo

e--9-11-9-7-5-3-----
b----------------3--
g-------------------
d-------------------
a-------------------
e-------------------

coro 2

 Bm5       /  F#m5  Em5      Em5
no olvides de gastar el doble en navidad
Dm               Em
regalos que nos abren el cielo
 Bm 4      /  F#m5  Em5      Em5  
y nunca olvides de pagar tus cuotas de felizidad
Dm               Em    F#8     G#8
en la cuenta del viejo pa$cuero pon tu dinero

bm5 .2 4 4...
fm5 .91111...
em5 .7 9 9...
dm  55 7 7 75
em  77 9 9 97
f#8 .9 .11...
g#8 .10.12...


  Bm5                                C#m5
ja,ja,ja,ja,ja,ja, compra en mi local    
  Bm                                 C#m5
por favor,por favor,aguildano mejor
  Bm                                            C#m5 Em5
ding dong bell, ding don bell, nieve Quiero ver           

me canse

coro x1
coro con acordes
verso 
  
bueno ojala que le guste esta cancion
tan potente del 5to disco de los ChAnChO eN pIeDrA y 
perdon por niño peo

More chords by Chancho en Piedra: