Chancho en Piedra - Me Voy Guitar Chords

Chancho en Piedra

chilean indie, chilean rock, cumbia chilena, latin rock

Chords: A5, C#5, D5, E5, A, G, G#, B, E
Esta es una rara tokata nueva y la tokaron con
living colour en el cumpleaños 7 ...

Riff principal x 4

e------------------------------------------------------
b------------------------------------------------------
g---9-9-9-9-9-x--9-9-9-9-9-x-6-/-7-7-7-7-x-6-/-7-7-7-7-
d---9-9-9-9-9-x--9-9-9-9-9-x-6-/-7-7-7-7-x-6-/-7-7-7-7-
a---7-7-7-7-7-x--7-7-7-7-7-x-4-/-5-5-5-5-x-4-/-5-5-5-5-
E------------------------------------------------------

Riff
No me quieras nunca mas...
Las puertas se van a cerrar...
El juego llego al final...
Comprendi vendaste mi corazon ya se aburrieron...

Coro:

 A5 C#5 D5     E5
   Na ve  go .... luego me voy
 A5 C#5 D5     E5            A
  El  jue go .... lejos me voy

   C#5  A            E5
    Me   voy   x 4    Guaaaaaaaaaaaaaaaaaaaaaa

Riff

Quize hacerlo mejorar...uhu uhu
Solo pude empeorar...uhu uhu
Asi es la realidad...uhu uhu
Tu juego se acabo todo aquello termino...

Coro.

Interludio.

G - G# x 2

K-vZon
Solo: Riff

Coro:

Riff   ...uhu uhu

Riff
Fueron años de desengaños...
sin ti ya nada me importa...
ahora se que es mejor...
B B E invierno....ohhhhh

Una cosa media extraña
e---------------------------12-12----------------------
b---------------------------9--9----------9------------
g------------------6--8--9--9--9--------9--------------
d---------6--7--9---------------------9----------------
a---7--9----------------------------7------------------
E------------------------------------------------------


Bueno agregenme al msn...

More chords by Chancho en Piedra: