Chancho en Piedra - Discojapy Guitar Chords

Chancho en Piedra

chilean indie, chilean rock, cumbia chilena, latin rock

Song versions: 1 2
Chords: A5, G5, Em7, Am, A#5, Bm, D5, A#m, Em, L
esta cancion se toca con guitarra en canal limpio...

INTRO: A5-G5

  Em7

cuando creci recien algo yo comprendi
cada un es su propio bien
nada sacamos con discutir ni criticar
al condenar sin averiguar

 Am                               A#5-Bm
hay que jusgar lo que uno hace mal
                  D5
y escupir encima de lo que hacen los demas

coro:

  Em7               Am
quisiera alejar, de este segundo
  Em7                       Am
lo mal intencionado, de este lugar
  Em7                      Am      G5    Am
que quieren derivar, lo que emos echo   durante añoss

Em7-Am-G5...(2x)

  Em7

Mi creación es un mundo....totalmente nuevo
 otro universo otro lugar....totalmente nuevo
 no se puede analizar en forma convencional
 lo sabes bien mi arte no compite

Am                           A#5-Bm
Voy a buscar mi propia verdad
           D5
sin importarme el gusto de los demás...


  Em7               Am
quisiera alejar, de este segundo
  Em7                       Am
lo mal intencionado, de este lugar
  Em7                      Am      G5    Am
que quieren derivar, lo que emos echo   durante añoss


esta parte es con distorcion
 ----------------------|    ----------------------------------------
 ----------------------|    ----------------------------------------
 ----------------------|    ----------------------------------------
 -9-7------------------|x3  -9-7------------------------------------
 -----10-7----7-10-7---|    -----10-7----7-10-7---------------------
 ----------10----------|    ----------10--------10-7-5-7-5-3-000000-


Em7                        Am

Es fácil decir que eso esta malo
     A#m   Em
 y no....hacer algo mejor
  Em7                      Am
 es fácil esconderse entre la gente
     A#m  Em
 y no....gritarlo de frente....

Acompañamiento del solo : Mim7-Lam-Lam#5-Lam-Mim(2x)

LG5Sol5(4x)


coro:

  Em7               Am
quisiera alejar, de este segundo
  Em7                       Am
lo mal intencionado, de este lugar
  Em7                      Am      G5    Am
que quieren derivar, lo que emos echo   durante añoss


esta parte es con distorcion
 ----------------------|    ----------------------------------------
 ----------------------|    ----------------------------------------
 ----------------------|    ----------------------------------------
 -9-7------------------|x3  -9-7------------------------------------
 -----10-7----7-10-7---|    -----10-7----7-10-7---------------------
 ----------10----------|    ----------10--------10-7-5-7-5-3-000000-

Em7....

More chords by Chancho en Piedra: