Chancho en Piedra - Dejando Libre El Amor Guitar Chords

Chancho en Piedra

chilean indie, chilean rock, cumbia chilena, latin rock

Chords: Cm7, Gm, D#7, D7, A#, Cm, D#, D
Made by José Cid the only one 

This is my first tab so don't be rude
Es la primera vez que hago esta wea no seai maricon


[Intro]

e|---------------------------------------------------------------------------|
B|--------------6--6h8--6--------6-------------------------------------------|
G|-----3--5/7----------------5h7-----5~--------------------------------------|
D|---------------------------------------------------------------------------|
A|---------------------------------------------------------------------------|
E|---------------------------------------------------------------------------|

e|---------------------------------------------------------------------------|
B|--------------6--6h8--6--------6-------------------------------------------|
G|-----3--5/7----------------5h7---------------------------------------------|
D|-----------------------------------5~--------------------------------------|
A|---------------------------------------------------------------------------|
E|---------------------------------------------------------------------------|

e|---------------------------------------------------------------------------|
B|--------------6--6h8--6--------6-------------------------------------------|
G|-----3--5/7----------------5h7-----7--7/5--3/5~----------------------------|
D|---------------------------------------------------------------------------|
A|---------------------------------------------------------------------------|
E|---------------------------------------------------------------------------|

e|---------------------------------------------------------------------------|
B|--------------6--6h8--6--------6-------------------------------------------|
G|-----3--5/7----------------5h7---------------------------------------------|
D|-----------------------------------5~--------------------------------------|
A|---------------------------------------------------------------------------|
E|---------------------------------------------------------------------------|

e|-----------6--8b10--8--6--6h8--6h8--8b10--6--------------------------------|
B|-----6-6h8-----------------------------------------------------------------|
G|---------------------------------------------------------------------------|
D|---------------------------------------------------------------------------|
A|---------------------------------------------------------------------------|
E|---------------------------------------------------------------------------|

e|-----------6--8b10--8--6---------------------------------------------------|
B|-----6-6h8----------------6h8--6-----6--8----------------------------------|
G|----------------------------------7--------7/5--3--------------------------|
D|---------------------------------------------------------------------------|
A|---------------------------------------------------------------------------|
E|---------------------------------------------------------------------------|

e|---------------------------------------------------------------------------|
B|-----------6--8------------------------------------------------------------|
G|------5/7--------7/5----3/5~-----------------------------------------------|
D|---------------------------------------------------------------------------|
A|---------------------------------------------------------------------------|
E|---------------------------------------------------------------------------|

e|---------------------------------------------------------------------------|
B|--------------6--6h8--6--------6-------------------------------------------|
G|-----3--5/7----------------5h7---------------------------------------------|
D|-----------------------------------5~--------------------------------------|
A|---------------------------------------------------------------------------|
E|---------------------------------------------------------------------------|

[Chords]

   Cm7    Gm   D#7   D7    A#
|---3------3----6-----5----6------------------------------------------------|
|---4------3----8-----7----6------------------------------------------------|
|---3------3----6-----5----7------------------------------------------------|
|---5------5----8-----7----8------------------------------------------------|
|---3------5----6-----5----8------------------------------------------------|
|---x------3----x-----x----6------------------------------------------------|


[Verse]

                     Cm7
Partiste esa mañana gris
                      Gm
No te lo niego, fui feliz
                       Cm7
Y ese vestido que compré para ti
                    Gm
No lo vería nunca más sobre mi

                 Cm7
Malditamente todavía
                              Gm
Pienso en ti a toda hora del día
       Cm                 Gm
Déjame ya, o hazme explotar!


[Chorus]

     D#7        D7
Con sólo ver tu color
           Gm
Con sólo acariciar tu sabor
          D#7             D7       Cm7 D7 D#7
Vuelvo a sentir lo que llaman amor


[Verse]

     Cm7
Mi equilibrio espiritual
                      Gm
Desaparece al verte hablar
                    Cm7
Y como loco me pongo a gritar
                    Gm
Que mataría por estar un día más

                     Cm7
Solo abrazándote querida
                     Gm
Podría pasar toda la vida
         Cm7          Gm
Como aceptar, no volverá!


[Chorus]

          D#7      D7
Con sólo ver tu color
           Gm
Con sólo acariciar tu sabor
         D#7          D7
Vuelvo a sentir la emoción
          Gm                         D#7     D7     Gm
Es peligrosa como las rosas que rasgarán mi piel al fin!
          D#      D
Dejando libre el amor


[Bridge]

Gm                   A#
A veces siento que esta situación
      D#7              D7
Me tiene atrapado como una adicción
   Gm                       A#
Escribe esta historia con tinta invisible
   D#7                   D7
Parezco ser duro, pero soy sensible

   Gm               A#          D#7
Me afecta sentir que ya no es igual
          D7        Gm
Que todo terminó fatal
    A#  D#7             D7
Y voy dejando libre el amor


[Chorus]

          D#7      D7
Con sólo ver tu color
           Gm
Con sólo acariciar tu sabor
         D#7          D7
Vuelvo a sentir la emoción
          Gm                         D#7     D7     Gm
Es peligrosa como las rosas que rasgarán mi piel al fin!
          D#7     D7  Cm7 D7 D#7  
Dejando libre el amor

  
   D#7    D7             Gm
 Debo actuar sin sentir temor
  Gm
 Dejando libre el amor
D#7      D7        Gm  (en  segunda vez es Cm7 D7 D#7)
Debo actuar sin sentir temor /x2

[en medio de los ultimos versos kbzon hace unos solos]
no 100% seguro

e|---------------------------------------------------------------------------|
B|---------------------------------------------------------------------------|
G|--17b19-19-19-19r17--------------------------------------------------------|
D|---------------------17--15--17--------------------------------------------|
A|---------------------------------------------------------------------------|
E|---------------------------------------------------------------------------|

e|---------------------------------------------------------------------------|
B|------------------------------------------------------18-------------------|
G|----------15--17--17br19--15h17---------15--17--17b19----17b19-------------|
D|---15h17-------------------------15h17-------------------------------------|
A|---------------------------------------------------------------------------|
E|---------------------------------------------------------------------------|

e|---------------------------------------------------------------------------|
B|---18----------------------------------------------------------------------|
G|------17--15---------------------------------------------------------------|
D|--------------17-----------------------------------------------------------|
A|---------------------------------------------------------------------------|
E|---------------------------------------------------------------------------|

e|---------------------------------------------------------------------------|
B|---------------------------------------------------------------------------|
G|--17b19-19-19-19r17--------------------------------------------------------|
D|---------------------17--15--17--17--15------------------------------------|
A|-----------------------------------------17/5------------------------------|
E|---------------------------------------------------------------------------|

Y termina con la intro


Viva Chile mierda y Los Chancho en Piedra

 

************************************

| h   Hammer-on
| /   Slide up
| ~   Vibrato
| b   Bend
| x   Dead note
| r   Release
| br  Bend release

************************************

More chords by Chancho en Piedra: