Chancho en Piedra - Da La Claridad A Nuestro Sol Guitar Chords

Chancho en Piedra

chilean indie, chilean rock, cumbia chilena, latin rock

Song versions: 1 2 3
Chords: Bm7, A, A#, F#m7, Em7, C#m7, Fm7, Cm7, A*, Bm7*, C#m7*, A#*, LA#*, LA*, SIm7*
  Bm7       A      A#     F#m7    Em7     C#m7    Fm7     Cm7
e|--7--| e|-----| e|-----| e|--9--| e|--7--| e|--9--| e|--8--| e|--8--|
b|--7--| b|--5--| b|--6--| b|--9--| b|--7--| b|--9--| b|--8--| b|--8--|
g|--7--| g|--6--| g|--7--| g|--9--| g|--7--| g|--9--| g|--8--| g|--8--|
d|--7--| d|--7--| d|--8--| d|--11-| d|--9--| d|--9--| d|--10-| d|--8--|
a|--9--| a|-----| a|-----| a|--9--| a|--7--| a|--11-| a|--8--| a|--10-|
e|--7--| e|-----| e|-----| e|-----| e|-----| e|--9--| e|-----| e|--8--|

INTRO: A*-Bm7*-A*-Bm7*-C#m7*


Bm7                  A   A#* 
Hoy me siento un poco nublado
Bm7                     A   A#*
y mi estrella se ha apagado,como puedo ver
Bm7                  A   A#*
la alegría en nuestro cuerpo
Bm7                     A    A#*
sin entrar en tu sagrado santuario.

CORO
F#m7          Em7            Bm7             C#m7
Dá la claridad a nuestro sol, que se nos va la vida,
F#m7       Em7           Bm7          C#m7*  
Ya caminarás sin el temor de tropezar  perdida.

Bm7*                                 A*          A*   LA#* 
Las caricias son las que mas me someten a tu calor
Bm7                            A       A#*
me quemo, mis cenizas aparecen en tu piel amor,
Bm7                               A      A#*
corazón, mi alma en tu cuerpo ya se escondió
Bm7                                                   A       A#*
espero, hija del sol, que devuelvas a mi la emoción, de escupir las mil penas.

(CORO)... eres la claridad, llenas mi soledad, calmas la tempestad.


A*-Bm7*-A*-Bm7*-LA*-LA#*-SIm7*

e|------------------------------------------------------------------------|-----|---------------|
b|------------------------------------------------------------------------|-----|---------------|
g|------------------------------------------------------------------------|-----|---------------|
d|------------------7-----------9/10-7-9------------------7--9/10-9-7-----|-----|---------------|
a|--9-9-7-9-7-9-7-9----9-9-7-9-7----------9-9-7-9-7-9-7-9-------------9-7-|--9--|----------7-9~-|
e|------------------------------------------------------------------------|-----|--9-7-7-9------|

Si es que no te veo en mucho tiempo
me convenceré que he muerto,
así soñaré con tu aliento
siendo tu recuerdo mi único alimento.
ahora que me hables desde la distancia
quiero disfrutar de tu presencia,
hablo con las ganas de besarte en la cara,
hablo con las ganas de tenerte en mi cama.

SOLO ACUSTICO
e|-----------------------------------------------| 
B|-----------------------------------------------| 
G|-------------------------------------9b--------|
D|--9----9-7-9-7-9/11- 7-6-7---6-7-6-7------9----| 
A|-----------------------------------------------| 
E|-----------------------------------------------|

e|----------------------------------------------| 
B|----------------------------------------------| 
G|---------------------------7/9-7-6-7-6h7p6/4--|
D|--9----9-7-9-7-9-7-6-7------------------------| 
A|----------------------------------------------| 
E|----------------------------------------------|

e|-------------------------------------------|
B|-------12b14-12-10-12----------------------| 
G|-------------------------------------------|
D|--9--------------------9-7-9-7-9b10-7-9-7--| 
A|-------------------------------------------| 
E|-------------------------------------------|

e|--------12-------12-------12--------------------|
B|--12h14----12h14----12h14----12h14b16-14-12-10--| 
G|------------------------------------------------| 
D|------------------------------------------------| 
A|------------------------------------------------| 
E|------------------------------------------------|

e|--11-10------------------------------------------|
B|--12-11------------------------------------------| 
G|-------------------------------------------------|
D|----------9--9/11--11/13\11-9/11\9--9-7-9-7-9-7--| 
A|-------------------------------------------------| 
E|-------------------------------------------------|

e|----------------------------------| 
B|----------------------------------|
G|---------------7/9-7-6-7-6h7p6-4--|
D|--6-7-6h7p6-----------------------| 
A|----------------------------------| 
E|----------------------------------|
 
(CORO)...

Ya la tempestad se calmará
y brillarán las luces que al evaporar las promesas
podrán quemar las últimas tristezas.
C#m7   Bm7  Em7  F#m7
Dá la claridad a nuestro sol.

OUTRO:Do#m7*-Fa#m7*-Fam7*-Mim7-Do#m7-Dom7*-Do#m7*-Dom7*-Sim7-Do#m7


ESTE ES UN REGALITO, CUANDO LOS CHANCHO TOCAN EN VIVO ESTA CANCION, 
AL TERMINAR  TOCA ESTE SOLO:

e|---/19-19-17----17----------17------------------|
b|-------------19----19-17-19----19-17\2/17-------|
g|------------------------------------------------|
d|------------------------------------------------|
a|------------------------------------------------|
e|------------------------------------------------|


IMPORANTE
|-------------------------------------------------|
|Los * que aparecen en cada nota significa que esa|               
|nota se tiene que tocar solamente una vez        |               
|-------------------------------------------------|

Esta es mi primera vez que escribo una tablatura y si es que le encuentran algun error 
escribanme a mi e-mail para poder corregirlo.

¡¡¡¡¡VIVA CHILE MIERDA Y LOS CHANCHO EN PIEDRA¡¡¡¡¡¡¡¡

More chords by Chancho en Piedra: