Chancho en Piedra - Allegro Guitar Chords

Chancho en Piedra

chilean indie, chilean rock, cumbia chilena, latin rock

Chords: A, D, G, F#, E, R, A , Bm, C#m, D , B
INTRO

A - D -G - D

*********************************************

VERSO

  F#D      E        D        Re(*)
|-----|   |-----|   |-----|   |--10--|
|-----|   |-----|   |-----|   |--10--|
|-----|   |-----|   |--7--|   |--7---|
|--4--|   |--2--|   |--7--|   |------|
|--4--|   |--2--|   |--5--|   |------|
|--2--|   |--0--|   |-----|   |------| 

F#           E      
Desde que comensé a vivir
RD                     Re(*)
me di cuenta que yo no era igual a los demás
F#              E
que no vine aquí a morir
RD                   Re(*)
si no a hacer algo original
F#                   E
y no entiendo por que alguna gente
RD              Re(*)
siente temor de ser diferente
F#                     E
y que alguien me explique por favor
RD                  Re(*)
quienes están locos en el mundo de hoy

*********************************************

CORO

  A        Bm      C#m       D        G       D
|-----|   |-----|   |-----|   |-----|   |-----|   |-----|
|-----|   |-----|   |-----|   |-----|   |-----|   |-----|
|-----|   |-----|   |-----|   |-----|   |-----|   |--7--|
|-----|   |-----|   |-----|   |--4--|   |--5--|   |--7--|
|--4--|   |--5--|   |--7--|   |--5--|   |--5--|   |--5--|
|--5--|   |--7--|   |--9--|   |-----|   |--3--|   |-----|

LaM - Sim - Do#m - ReM
estarán ellos bien
G        D
o yo estoy loco

*********************************************

PARTE B

  Bm      C#m       F#       D        G
|-----|   |-----|   |-----|   |-----|   |-----|
|-----|   |-----|   |-----|   |-----|   |-----|
|-----|   |-----|   |-----|   |-----|   |-----|
|-----|   |-----|   |--4--|   |--4--|   |--5--|
|--5--|   |--7--|   |--4--|   |--5--|   |--5--|
|--7--|   |--9--|   |--2--|   |-----|   |--3--|

C#m      
Las pilas se agotan
Bm
lo antiguo se vota
F#
las modas pasan
F#
el tiempo avanza
D 
todo caga
C#m
la vida se acaba
G
pero lo que hacemos
G
queda para siempre

*********************************************

FINAL:

C#m
Piensa actúa
Bm
El tiempo se acaba
F#
Ya

*********************************************

ORDEN:

INTRO
VERSO
CORO
VERSO
CORO
PARTE B
VERSO
CORO
PARTE B
CORO
CORO
FINAL

More chords by Chancho en Piedra: