Chance the Rapper - Same Drugs Guitar Chords

Chance the Rapper

conscious hip hop, hip hop, pop, pop rap

Song versions: 1 2 3 4 5
Chords: C/E, F, Am, G, C, Dm, Am7, D, Am6, C6/9
Capo 6

[Intro]
C/E     F        C/E      F       C/E     F     Am  G  F   (hit 5th string of F chord) 
(The end of the intro is a descending bass line, A, G, F, C, but with a capo on 6, you'll have to hit
 the final C an octave up)


[Chorus]
C/E  F               C/E        F
We don't do the same drugs no more
                 C/E                  F                   Am     G      C/E F
We don't do the, we don't do the same drugs, do the same drugs no more
      C/E      F            C/E      F
Cause she don't do the same drugs no more
                 C/E             F                         Am     G       C/E  F
We don't do the, we don't do the same drugs, do the same drugs no more

[Verse]
C/E           F       
When did you change?
C/E          F
Wendy you've aged
C/E               F
  I thought you'd never grow up
Am       G         C/E  F
   I thought you'd never
C/E    F       C/E       F
Window closed, Wendy got old
C/E             F      
I was too late, I was too late
Am             G          C/E F
  A shadow of what I once was

[Chorus]
     C/E  F               C/E       F
Cause We don't do the same drugs no more
                 C/E                F                    Am    G      C/E  F
We don't do the, we don't do the same drugs, do the same drugs no more
C/E  F             C/E         F
She don't laugh to same way no more
                 C/E               F                Am       G      C/E F
We don't do the, we don't do the same drugs, do the same drugs no more

[Verse]
C/E           F
Where did you go?
C/E           F
Why would you stay?
C/E              F
   You must have lost your marbles
Am            G            C/E F           
You always were so forgetful
C/E        F
In a hurry
C/E           F
Don't wait up
C/E             F 
I was too late, I was too late
Am          G              C/E  F       
A shadow of what I once was
C/E              F       C/E         F
Cause we don't, we don't do what we say we're gonna
C/E                F            Am    G         C F
   You were always perfect, and I was only practice
C/E                F   
Don't you miss the days
C/E    F
        stranger?
C/E                F    
Don't you miss the days?
Am        G        C/E F
Don't you miss the danger?

[Chorus]
C/E     F                       C/E       F
We don't (we don't) do the same drugs no more (do the same drugs no more)
                C/E                  F                 Am          G   C/E  F
We don't do the, we don't do the same drugs, do the same drugs no more
C/E F                            C/E     F 
We don't (we don't) do the same drugs no more (do the same drugs no more)
                                 C/E    F                Am         G   C/E F    
We don't do the, we don't do the same drugs, do the same drugs no more
`                   Am         F C/E F C/E F       C/E
We don't do the, we don't do the same drugs

[Bridge]
C     Dm C   Am7     D
C   Am6  C6/9   C  Am   C   G   C
(full tab at bottom)

[Outro]
C/E                             F    
Don't forget the happy thoughts
C/E                             F 
All you need is happy thoughts
C/E                             F    
The past tense, past bed time     Way back then when
 C/E                             F
 everything we read was real And everything we said rhymed
C/E                          F
Wide eyed kids being kids    Why did you stop?
C/E                     F 
What did you do to your hair?
C/E                     F
Where did you go to end up right back here?
Am             G              C/E F
When did you start to forget how to fly?
C/E  F Am    F
C/E  F Am    F
C/E       F
Don't you color out
C/E        F
Don't you bleed on out, oh
C/E                 F               Am G C/E F
Stay in the line, stay in the line
C/E       F
Dandelion


[Bridge]
   C           C       Dm C   Am7             D
e|-------------0-0-0---1--0-------------------------------------
B|-1-1----3----1-------3--1----1----1------------------3--------
G|-------------0-------2--2----0-0----2--0----2----2---2---2----
D|-----------------------------2-2---------2--4--------4---4----
A|-----------------------------0-0------------5------------5-----
E|--------------------------------------------------------------

    C         Am6        C6/9               C         Am                   
e|--------------------------------0---0--0--0------------------------0---
B|--1--1--1-------1--1---------1------------1---3----1-1----1---1--3-----
G|--0----------2----------2-----------------0----------2----2------------
D|--2----------4----------0----------------------------2----2------------
A|--3----------0----------3---------------------------------0------------
E|-----------------------------------------------------------------------

     C       G          C        
e|---8---5---3---0--------------------------------------------------------
B|---5-------0------3-----3--1--3--1--------------------------------------
G|---5-------0------------------------------------------------------------
D|---5-------2----------2-------------------------------------------------
A|------------------------------------------------------------------------
E|------------------------------------------------------------------------

More chords by Chance the Rapper: