Chad Valley - Shell Suite Guitar Chords

Chad Valley

balearic, chillwave, indie psych-rock, indietronica

Chords: D, E, A, C, G, F#, C#, B
Saw the movie "Warm bodies" and fell in love with this song.

The song is straight forward:

Key: A

Chords i use:

       D    E    A
E------0----0----0----|
B------x----0----0----|
G------2----x----x----|
D------0----6----7----|
A------0----x----0----|
E------x----0----x----|

!you can use the standard chords, or the capo on the 2nd fret to play from G ( in
which case, you will play C D G C )


Intro - i will get back with the tab for the intro.

Chorus:

D E A D - and repeat, !!!it starts with a D and it ends with a D!!!

2nd verse: - hold just the base line for this bid


       A    F#   C#   B    A
E------5----2----9----7----5--|
D-----------------------------|
G-----------------------------|
D-----------------------------|
A-----------------------------|
E-----------------------------|

More chords by Chad Valley: