Büyük Ev Ablukada - Ne Var Ne Yok Guitar Chords

Büyük Ev Ablukada

turkish alternative rock, turkish rock

Chords: Em, Asus2, A, G, Em7, F#m7, F#7sus4, Fm7, F#sus4
[Intro]

      Em                  Asus2
e|------------------------------------------------------------------------------|
B|----0---0-0-0------------0---0-0-0--0-0-0-------------------------------------|
G|----0---0-0-0--0-0-0----0h2--2-2-2--2/4\2-------------------------------------| 
D|---0h2--2-2-2--2/4\2----0h2--2-2-2--0-0-0-------------------------------------|
A|---0h2--2-2-2--0-0-0-----0---0-0-0--------------------------------------------|
E|----0---0-0-0-----------------------------------------------------------------|(x4)


[Verse 1]

Em        Asus2
Bu yanlış çok farklı
Em        Asus2
Bize ayıp bize güzel.
Em        Asus2
Bahçe başka oyun aynı.
Em        Asus2
Yine kayıp bizi üzen.

Em      A
O değil onlar değil
Em        Asus2
Yine kayıp bizi üzen. 

Em      A
O değil onlar değil 
Em        Asus2
Yine kayıp bizi üzen.


[Interlude]

      Em                  Asus2
e|------------------------------------------------------------------------------|
B|----0---0-0-0------------0---0-0-0--0-0-0-------------------------------------|
G|----0---0-0-0--0-0-0----0h2--2-2-2--2/4\2-------------------------------------| 
D|---0h2--2-2-2--2/4\2----0h2--2-2-2--0-0-0-------------------------------------|
A|---0h2--2-2-2--0-0-0-----0---0-0-0--------------------------------------------|
E|----0---0-0-0-----------------------------------------------------------------|(x4)

[Verse 2]
Em        Asus2
Bi karışsak içlerine.
Em        Asus2
Cebimizde taşlarla.
Em        Asus2
Hangi puşt bizi üzen? 
Em             Asus2
Ne var ne yok? ne var ne yok?

Em      A
Aşar bizi ömrün boyu.
Em      Asus2
(Boşuna boy verme)
Em      A
Aşar bizi ömrün boyu.
Em       A
(Ayakların yere değmez)

[Organ Solo]

      Em
e|---------------|
B|---------------|
G|----0---0-0-0--|  Verse 3'te Em akorunu bu şekilde basın.
D|---0h2--2-2-0--|
A|---0h2--2-2-0--|
E|----0---0-0-0--|
      *   * * *

[Verse 3]

Em
Dalgalar gibi, boğuşmak zor cebimizde taşlarla.
Em
Fırlatıp atmaktansa
Em
Ağırlığıyla batsak ya,
A
İkimiz de cebimizde taşlarla. 

[Pre-Solo]

      Em
e|-------------------------------------------------|
B|-------------------------------------------------|
G|----0---0-0---0-0---0-0--0-0--0------------------|
D|----2---0-2---0-2---0-2--0-2--0------------------|
A|----2---0-2---0-2---0-2--0-2--0------------------|
E|----0---0-0---0-0---0-0--0-2--0------------------|

Em
Görmesin bizi.
Em
Görmesin mümkünse.
Em
Görmesin hiç kimse.

Em         A
Görmesin bizi.
G        A
Görmesin mümkünse.
G        A 
Görmesin hiç kimse. 
Cebimizde taşlarla.

[Outro]

   Em7   Em7   G    F#m7   F#7sus4   Fm7
e|--7----10-----------9------9---------8------------------------------------------------|
B|--8----8-----12-----10-----12--------9------------------------------------------------|
G|--7----7-----12-----9------9---------8------------------------------------------------|
D|--9----9-----12-----11-----11--------10-----------------------------------------------|
A|--7----7-----10-----9------9---------8------------------------------------------------|
E|--------------------------------------------------------------------------------------|

Em7 Em7 Em7 G
F#m7 F#sus4 F#m7 F#7sus4 F#m7 F#7sus4 F#m7 Fm7   (x5)



************************************

| h  Hammer-on
| /  Slide up
| \  Slide down

************************************

More chords by Büyük Ev Ablukada: