Butthole Surfers - Cough Syrup Guitar Chords

Butthole Surfers

alternative rock, experimental rock, funk rock, grunge

Song versions: 1 2 3
Chords: Gmaj, Em, Emaj, D7, Cm, Amaj
       -----------------------------------
       COUGH SYRUP by The Butthole Surfers
       -----------------------------------

Tabbed by: T.J. Stimola (Nuclearbomb8900)
Email: Nuclearbomb8900@gmail.com

Tuning: Standard

Intro/Verse - Slight to Moderate Distortion

e|--------------------------------0--0--------------|
B|--------------------------------0--0--------------|
G|--------------------------------1--0--------------|
D|--------------------------------2--2--------------|
A|--------------------------------2--2--------------|
E|--0--0--0--0--0--0--0--0--0--0--0--0-----0--0--0--|
    1  +  2  +  3  +  4  +  1  +  2  +  3  +  4  +

e|--------------------------------0--0--------------|
B|--------------------------------0--0--------------|
G|--------------------------------1--0--------------|
D|--------------------------------2--2--------------|
A|--------------------------------2--2--------------|
E|--0--0--0--0--0--0--0--0--0--0--0--0-----0--0--0--|
    1  +  2  +  3  +  4  +  1  +  2  +  3  +  4  +

Chorus

Gmaj              F#maj                   Em Em Emaj/Em
I can't walk so I guess I'm gonna stay at home

         D7                Cm             Em
They can have my legs just leave my head alone

ect...

Outro

  Gmaj           Amaj        Em
I know that your mother is a martyr

  Gmaj            Amaj                 Em
I heard she's got connections with the mob

       Gmaj           Amaj            Em
If you wanna learn to fight you gotta drink up all the light

      Gmaj       Amaj        Em
And I hate cough syrup don't you

ect...

It might not have been matched up right, but play it against
the real song and you'll figure it out peace out XD





Is anyone else annoyed at Ian MacKaye for saying cough "sirrup"?

More chords by Butthole Surfers: