Busted - Over Now Guitar Chords

Busted

boy band, europop, pop punk, post-teen pop

Song versions: 1 2 3
Chords: E, A, C#m, B
-----------------------------------------------------------------------------
                Over Now - Busted
-----------------------------------------------------------------------------
Tabbed by: Fabio BlenderBR
 - Please rate and send me your feedback -

Intro Riff:
e|-----------------------------------------------------------------------------------|
B|------------------------------------------------------------------------0----------|
G|------9--8------8--9-------9--8------8--9--------2-1-----1h2p1-----1-2----2-1------|
D|----9---------9----------9---------9-----------2-------2----------------------2----|
A|--7--------------------7----------------------0-------------------0----------------|
E|-----------------------------------------------------------------------------------|
    E                    E                      A                  A

Verse:
E
Here we go                            |
Take a bow                            |
A                                     |
Because we're over now                |
E                                     |
You were not                          |   Riff above 2x
There for me                          |
A                                     |
When I needed you and honestly        |

C#m         B        A
I think I loved you more

If that's possible
C#m         B        A
I think I loved you more


Chorus:
      E        B           A
It's over now and I can't save you
E              B               A
Some things are better left unsaid
E              B        A
And all the promises I made were so stupid
C#m             B            A
Maybe we'll be able to be friends
If that's possible

Verse 2:
E
Two days gone I'm alright               |
A                                       |
But you can't sleep at night            |
E                                       |
What is it you don't like               |  Riff Above 2x
A                                       |
I'm happy now                           |
I was playing with your head            |

C#m     B         A
And I close the door
I was kidding when I said
C#m     B   A
I love you more, yeah


Chorus:
      E        B           A
It's over now and I can't save you
E              B               A
Some things are better left unsaid
E              B        A
And all the promises I made were so stupid
C#m             B            A
Maybe we'll be able to be friends
If that's possible


Bridge: C#m, A, E, B      2x


Chorus:
      E        B           A
It's over now and I can't save you
E              B               A
Some things are better left unsaid
E              B        A
And all the promises I made were so stupid
C#m             B            A
Maybe we'll be able to be friends
If that's possible

E                           |
If that's possible          |
A                           |
If that's possible          |
E                           | 
If that's possible          |  Riff above 2x
A                           |
It's over now               |

- Tabbed by Fabio BlenderBR
- Don't forget to rate )

More chords by Busted: