Book Of Fears - The Water Lets You In Guitar Chords

Song versions: 1 2
Chords: Dsus2, Cadd9, G, D
-------------------------------------------------------------------------------
                             The Water Lets You In - Book of Fears
-------------------------------------------------------------------------------
Tabbed by: MadDan
E-mail: danny4@rocketmail.com

2018 Edition
Hopefully the outro is WAY better know, as I've decided to come back and
listened to the walk down on the outro. Sounds way more accurate to me.
Thanks for the support and I hope this new version
helps better

This is MUCH better played fingerstyle!

Tuning: Standard

[Intro]:
Dsus2
e|----------------------------------------------------|
B|-------3----------3-----------3----------3----------|
G|-----2---2------2---2-------2---2------2---2--------|
D|---0----------0-----------0----------0--------------| x2
A|----------------------------------------------------|
E|----------------------------------------------------|

e|-------------------|
B|-------3-----------|
G|-----2---2---------|
D|---0---------------|
A|-------------------|
E|-------------------|

[Verse]:
Dsus2 Cadd9 G
e|----------------------|--------------------|----------------------|--------------------|
B|------3-----------3---|-------3--------3---|------3-----------3---|-------3---------3--|
G|----2---2-------0---0-|-----0---0----0---0-|----0---0-------2---2-|-----2---2-----2---2|
D|--0-------------------|--2-----------------|------------0---------|-0---------0--------|
A|-------------3--------|--------------------|-2--------------------|--------------------|
E|----------------------|------------3-------|----------------------|--------------------|
  Young man goes out...  looking for...   diamond in...

[Verse]:
Dsus2 Cadd9 G
e|----------------------|--------------------|----------------------|--------------------|
B|------3-----------3---|-------3--------3---|------3-----------3---|-------3---------3--|
G|----2---2-------0---0-|-----0---0----0---0-|----0---0-------2---2-|-----2---2-----2---2|
D|--0-------------------|--2-----------------|------------0---------|-0---------0--------|
A|-------------3--------|--------------------|-2--------------------|--------------------|
E|----------------------|------------3-------|----------------------|--------------------|
        ...his boat to shore...         and falls on twisted...

[Chorus]:
Dsus2 Cadd9 G
e|-----------------------|--------------------|---------------------|---------------------|
B|------3------------3---|-------3--------3---|-------3---------3---|-----3-----------3---|
G|----2---2--------0---0-|-----0---0----0---0-|-----0---0-----2---2-|---2---2------2----2-|
D|--0--------------------|--2-----------------|-----------0---------|-0---------0---------|
A|--------------3--------|--------------------|--2------------------|---------------------|
E|-----------------------|-----------3--------|---------------------|---------------------|
    and you'll drown...         ...water lets you...

[Chorus]:
Dsus2 Cadd9 G
e|----------------------|---------------------|---------------------|--------------------|
B|------3------------3--|--------3--------3---|-------3----------3--|------3---------3---|
G|----2---2--------0---0|------0---0----0---0-|-----0---0------2-- 2|----2---2-----2---2-|
D|--0-------------------|-0h2-----------------|-0h2-------0-2-0-----|-0----------0-------|
A|--------------3-------|---------------------|---------------------|--------------------|
E|----------------------|------------3--------|---------------------|--------------------|
    and you'll drown...         ...water lets you...
e|-------------------|
B|-------3-----------|
G|-----2---2---------| x2
D|---0---------------|
A|-------------------|
E|-------------------|

[Verse]:
Dsus2 Cadd9 G
e|----------------------|-------------------|-----------------------|--------------------|
B|------3---------3-----|------3--------3---|-----3----------3------|-----3---------3----|
G|----2---2-----0---0---|----0---0----0---0-|---0---0------2---2----|---2---2-----2---2--|
D|--0-------------------|--2----------------|-------------0---------|-0---------0--------|
A|-----------3----------|-------------------|--2--------------------|--------------------|
E|----------------------|----------3--------|-----------------------|--------------------|
         ...fear the most...   ...follows me...
e|-------------------|
B|-------3-----------|
G|-----2---2---------|
D|---0---------------| x2
A|-------------------|
E|-------------------|

[Verse]:
Dsus2 Cadd9 G
e|----------------------|-------------------|-----------------------|--------------------|
B|------3--------3------|---3----------3----|-----3--------3--------|---3---------3------|
G|----2---2----2---2----|-0---0------0---0--|--0---0----0---0-------|-2---2-----2---2----|
D|--0--------0----------|------2------------|-------------------0---|--------0-----------|
A|------------------3---|-------------------|--------2--------------|--------------------|
E|----------------------|----------------3--|-----------------------|--------------------|
  ...all across the starry...   ...from sea to dyin' sea...
e|-------------------|
B|-------3-----------|
G|-----2---2---------|
D|---0---------------|
A|-------------------|
E|-------------------|

[Chorus]:
Dsus2 Cadd9 G
e|----------------------|-------------------|-----------------------|-------------------|
B|----3-----------3-----|----3----------3---|-------3----------3----|-----3---------3---|
G|--0---0-------0---0---|--0---0------0---0-|-----2---2------2---2--|---2---2-----2---2-|
D|----------2-----------|-------------------|-0-----------0---------|0---------0--------|
A|3---------------------|---------2---------|-----------------------|-------------------|
E|----------------------|3------------------|-----------------------|-------------------|
 drown before...    the water lets you...

[Chorus]:
Dsus2 Cadd9 G
e|----------------------|-------------------|-----------------------|-------------------|
B|----3-----------3-----|----3----------3---|-------3----------3----|-----3---------3---|
G|--0---0-------0---0---|--0---0------0---0-|-----5---5------5---5--|---2---2-----5---5-|
D|---------0h2----------|-------------------|--0-----------0--------|-0---------0-------|
A|3---------------------|---------0h2-------|-----------------------|-------------------|
E|----------------------|3------------------|-----------------------|-------------------|
 ...drown...         ...water lets you in...

[Verse]:
Dsus2 Cadd9 G
e|---------------------|--------------------|-----------------------|-------------------|
B|------3---------3----|----3--------3------|-----3---------3-------|----3---------3----|
G|----0---0-----0---0--|--0---0----0---0----|---2---2-----2---2-----|--2---2-----2---2--|
D|-----------2---------|--------------------|-0---------0-----------|-0---------0-------|
A|--3------------------|-------2------------|-----------------------|-------------------|
E|---------------------|3-------------------|-----------------------|-------------------|
...think...        ...wanted most was just never meant to be...


[Verse]:
Dsus2 Cadd9 G
e|---------------------|--------------------|-----------------------|-------------------|
B|------3----------3---|---------3---------3|--------3--------3-----|-----3---------3---|
G|----2---2------4---4-|-------0---0-----0--|-0----0---0----0---0---|---2---2-----2---2-|
D|--0----------0-------|--------------2-----|-----------------------|0---------0--------|
A|---------------------|---3----------------|------------2----------|-------------------|
E|---------------------|--------------------|3----------------------|-------------------|
...waves... ...ghosts..              ...their sorrows follow me...

[Chorus]:
Dsus2 Cadd9 G
e|---------------------|--------------------|------------------------|--------------------|
B|------3-----------3--|--------3--------3--|--------3---------3-----|----3----------3----|
G|----2---2-------0---0|------0---0----0---0|------0---0-----2---2---|--2---2------2---2--|
D|--0------------------|-0h2----------------|------------0-----------|0----------0--------|
A|--------------3------|--------------------|--0h2-------------------|--------------------|
E|---------------------|-------------3------|------------------------|--------------------|
    and you'll drown...         ...water lets you in...
Cadd9

[Outro]:
Csus2, Bm#5, D, A#6
e|----------------------|---------------------|---------------------|---------------------|
B|------3------------3--|--------3--------3---|-------3---------3---|-----3-----------3---|
G|----0---0--------0---0|------0---0----0---0-|-----2---2-----2---2-|---0---0-------0---0-|
D|----------------------|---------------------|---0--------0--------|---------------------| x3
A|--3-----------3-------|--2---------2--------|---------------------|-1---------1---------|
E|----------------------|---------------------|-------------------------------------------|

[Outro]
Csus2, Bm#5, A#6
e|----------------------|---------------------|---------------------|
B|------3------------3--|--------3--------3---|------3--------3-----|
G|----0---0--------0---0|------0---0----0---0-|----0---0----0---0---|
D|----------------------|---------------------|---------------------|
A|--3------------3------|---2---------2-------|--1---------1--------|
E|----------------------|---------------------|---------------------|

D
e|---2-------------|
B|---3-------------|
G|---2-------------|
D|---0-------------|
A|---0-------------|
E|-----------------|


|h Hammer-on

More chords by Book Of Fears: