Bob Dylan - Spanish Harlem Incident Guitar Chords

Bob Dylan

album rock, classic rock, folk, folk rock

Song versions: 1 2
Chords: G, C, C/D, G/D, D, C/G
---------------------------------------------------------------------------
                Spanish Harlem Incident – Bob Dylan
---------------------------------------------------------------------------

Written by: Bob Dylan
From: "Another Side of Bob Dylan" (1964)

Tabbed by: maguri
Tuning: Standard

Here is what I could figure out from the recording. Chords and lyrics are
below. Before, I tried to tab some of the voicings, links and licks that 
are played. These may be left out by beginners but could be helpful if you 
want to make the guitar part more interesting and lively. Enjoy!

---------------------------------------------------------------------------

VERSE PATTERN
  G       C        C       G
  1 + 2 + 3 + 4 +  1 + 2 + 3 + 4 +  
e|----------------|----------------|
B|0---3-0-1---1-0-|1---1-0-0---0-0-|
G|0---0-0-0---0-0-|0---0-0-0---0-0-|
D|0-------2---2-0-|2---2-0-0---0-0-|
A|--------------3-|3---------------|
E|3---------------|--------3-------|
    Gypsy gal  the hands   Harlem ...
                       of
LINK
 C/D     G/D      C/D      D           (lick)
  1 + 2 + 3 + 4 +  1 + 2 + 3 + 4 +  1 + 2 +  
e|3---3---3---3---|3---3---2---2-2-|2-------|
B|5---5---3---3---|5---5---3---3-3-|3---1-0-|0
G|5---5---4---4---|5---5---2---3-2-|2---2-0-|0
D|0---0---0---0---|0---0---0-------|0-------|0
A|----------------|----------------|--------|
E|----------------|----------------|--------|3
  In- to  reach    rattling            Let   know babe ...
             of your       drums         me

END of VERSE
  G       C        D*  C G  [G]
  1 + 2 + 3 + 4 +  1 + 2 +  
e|3-------0---0-0-|0---0---|
B|0---0---1---1-1-/3---1-0-|0
G|0---0-0-0---0-0-|0---0-0-|0
D|0-----0-2---2-2-/4---2-0-|0
A|--------3-------|--------|
E|3---------------|--------|3
   Down  along my rest-less palms 


INTERLUDE 
  G      C/G      [lick)
  1 + 2 + 3 + 4 +  1 + 2 + 3 + 4 +  
e|3---3-3-3---3---|0-0-0-0---0-----|
B|0---0-0-1---1-1-/3-3-3-3/3-1-0---|
G|0---0-0-0---0-0-|0-0-0-0---0---0-|
D|0---0-0-3---2-2-|----------------|
A|----------------|----------------|
E|3-------3-------|----------------|

INTERLUDE VARIATION
  G      C/G      [lick)
  1 + 2 + 3 + 4 +  1 + 2 + 
e|3---3-3-3---3---|0-0-0-0-|
B|0---0-0-1---1-1-/3-3\1-0 |
G|0---0-0-0---0-0-|0-0-0-0-|
D|0---0-0-3---2-2-|--------|
A|----------------|--------|
E|3-------3-------|--------|


---------------------------------------------------------------------------
CHORDS

      E-A-D-G-B-e
C/D   x-x-0-5-5-3
G/D   x-x-0-4-3-3
D*    x-x-4-0-3-0
C*    x-x-2-0-1-0
C/G   3-x-2-0-1-0

---------------------------------------------------------------------------

INTRO
| G C | C G | G | 

G      C                 G
 Gypsy gal, the hands of Harlem
G       C               G
 Cannot hold you to its heat
G            C                  G
 Your temperature’s too hot for taming
G             C                       G
 Your flaming feet are burning up the street
C/D  G/D       C/D      G
I am homeless, come and take me
C/D   G/D           C/D      D     [= LINK]
 Into reach of your rattling drums
       G          C/G D*     G
Let me know, babe,   about my fortune
G     C        D*  C*   [ G ]  [= END of VERSE]
 Down along my restless palms


INTERLUDE (2x)
| G C | [lick) | G C | [lick) | G C | G |


G      C                 G
 Gypsy gal, you got me swallowed
G       C            G
 I have fallen far beneath
G            C                 G
 Your pearly eyes, so fast an’ slashing
G         D*       C*       G
 An’ your flashing diamond teeth
    C/D      G/D          C/D      G
The night is pitch black, come an’ make my
C/D        G/D      C/D        D     [= LINK]
 Pale face fit into place, ah, please!
         G        C/G    D*     G
Let me know, babe,   I’m nearly drowning
G        C      D*  C*    [ G ]  [= END of VERSE]
 If it’s you my lifelines trace


INTERLUDE        +  INTERLUDE VARIATION
| G C | [lick) |    | G C |2/4 [lick) | G | 


G       C              G
 I been wond’rin’ all about me
G     C                G
 Ever since I seen you there
       G              C                  G
On the cliffs of your wildcat charms I’m riding
G            D*              C*         G
 I know I’m ’round you but I don’t know where
C/D      G/D        C/D      G
You have slayed me, you have made me
C/D       G/D            C/D    D     [= LINK]
 I got to laugh halfways off my heels
         G          C/G      D*     G
I got to know, babe,    will you surround me?
G         C           D*  C* [ G ]   [= END of VERSE] 
 So I can know if I’m really real

| G C/G | G

More chords by Bob Dylan: