Bob Dylan - It Aint Me Babe Guitar Chords

Bob Dylan

album rock, classic rock, folk, folk rock

Song versions: 1 2 3 4 5 6
Chords: C, Em, Dm, F, G, Am
-------------------------------------------------------------------------------
                           It Ain't Me, Babe-Bob Dylan
-------------------------------------------------------------------------------
Tabbed by:Nick V.
E-mail:BlindTerry333@gmail.com

Tuning:EADGBE


Guitar 1 

   C  Em   Dm  F   G
e|-0---0---1---1---3-----------------------------------------------------------|
B|-1---0---3---1---3-----------------------------------------------------------|
G|-0---0---2---2---0-----------------------------------------------------------|
D|-2---2---0---3---0-----------------------------------------------------------|
A|-3---2---0---3---2-----------------------------------------------------------|
E|-x---0---x---1---3-----------------------------------------------------------|


Guitar 2

   C  Em   Dm   F   G
e|-8---7----5---5---7--------------------------------------------------------|
B|-8---8----6---6---8--------------------------------------------------------|
G|-9---9----7---5---7--------------------------------------------------------|
D|-10--9----7---7---9--------------------------------------------------------|
A|-x---7----5---x---x--------------------------------------------------------|
E|-x---0----x---x---x--------------------------------------------------------|

[Riff #1]

e|-7-7-7---5-5-5---5-5-5---5-5-5---------------------------------------------|
B|-8-8-8---6-6-6---5-5-5---6-6-6---------------------------------------------|
G|-9-9-9---7-7-7---5-5-5---7-7-7---------------------------------------------|
D|---------------------------------------------------------------------------|
A|---------------------------------------------------------------------------|
E|---------------------------------------------------------------------------|


[Intro]

C

e|---------------------------------------------------------------------------|
B|---------------------------------------------------------------------------|
G|---------0---2---0---2-4-5---5-4-4---2-4-0-0-------------------------------|
D|-0--0-2----------------------------------------0-2-4-2-0--2--0--2-0--------|
A|---------------------------------------------------------------------------|
E|---------------------------------------------------------------------------|

[Verse]

Em              Dm
Go 'way from my window
Em            Dm         C
Leave at your own chosen speed
Em                  Dm
I'm not the one you want, babe
Em     Dm              C  [Riff #1]
I'm not the one you need
Em                     Dm
You say you're lookin' for someone
            Em              Dm
Who's never weak but always strong
Em                   Dm
To protect you an' defend you
Em                       Dm
Whether you are right or wrong
    F                          G
Someone to open each and every door

[Chorus]
             C
But it ain't me, babe
F           G            C
No, no, no, no, it ain't me babe
         F         G       Am   F
It ain't me you're lookin' for, babe.
         C         G       C
It ain't me you're lookin' for.

[Verse]

Em              Dm
Step lightly from the ledge, babe
Em            Dm         C
Step lightly on the ground
Em                Dm
I'm not the one you want, babe
Em            Dm         C [Riff #1]
I will only let your down
Em                     Dm
You say you're lookin' for someone
Em                     Dm
Who will promise never to part
Em                     Dm
Someone to close his eyes for you
Em                     Dm
Someone to close his heart
   F                            G
Someone who will die for you an' more

[Chorus]
             C
But it ain't me, babe
F           G            C
No, no, no, no, it ain't me babe
         F         G       Am   F
It ain't me you're lookin' for, babe.
         C         G       C
It ain't me you're lookin' for.

[Verse]

Em              Dm
Go melt back into the night
Em            Dm         C [Riff #1]
Everything inside is made of stone
Em              Dm
There's nothing in here moving
Em            Dm         C
An' anyway I'm not alone
Em                     Dm
You say you're looking for someone
Em                      Dm
Who'll pick you up every time you fall
Em                     Dm
To grow them flowers constantly
Em                     Dm
And to come each time you call
   F                    G
A lover for you life an' nothing more

[Chorus]
             C
But it ain't me, babe
F           G            C
No, no, no, no, it ain't me babe
         F         G       Am   F
It ain't me you're lookin' for, babe.
         C         G       C
It ain't me you're lookin' for.



Questions, comments, insults...BlindTerry333

More chords by Bob Dylan: