Black Uhuru - Shine Eye Gal Guitar Chords

Black Uhuru

dancehall, dub, reggae, roots reggae

Chords: F#m, E
----------------------------------------------------------------------------
                          Shine Eye Gal – Black Uhuru
----------------------------------------------------------------------------

Tabbed by:RootsRadish   
Email:justin.takayama@gmail.com

Tuning:Standard

        F#m     E
e||-9---9---7--7-||
B||-10--10--9--9-||
G||-11--11--9--9-||
D||-11--11--9--9-||
A||-9---9---7--7-||
E||-x---x---x--x-||

This is the rhythm skank for this song.
If you aren't familiar with reggae music, 
skanking is a technique where you don't 
actually press down on the strings but
just place your fingers over the fret,
similar to what you would do if you were
playing harmonics, but pressing down just 
slightly, without the strings touching the 
fret, so that you don't get the harmonic, nor
do you get the notes sounding out.  It should
sound like a scratching sound and is played on 
the & of the beat inbetween where the bass drum
and snare are usually played.

This song uses just these two chords, howerer,
the pattern changes slightly towards the end of 
the song.

Please rate.

============================================================================

More chords by Black Uhuru: