Billy Talent - Tears Into Wine Guitar Chords

Billy Talent

alternative metal, canadian punk, nu metal, pop punk

Song versions: 1 2 3
Chords: C#, Bbm, Ebm, A, C7, F, F#, G#, C/F
Billy Talent
Tears Into Wine
Billy Talent III
2009 Warner Records
Submitted by: paramore_fans@yahoo.com

Key: C#

Tuning: Standard EADGBe

Chords used:
Bbm -  x13321
F# -   244322
C# -   x46664
G# -   466544
Ebm -  x68876
F  -   133211
A -    x02220
C7 -   x323xx
C#/F - 143xxx


Intro:

Ian:
         Bbm                C#                F#              
  C#
e|-----------------|-----------------|-----------------|-----------------|
B|-----6---4-------|-----------------|---------2-------|-----------------|
G|-6-----------6---|-5---3-----------|-3---5-------3---|-----------------|
D|-----------------|---------6---3-6-|-----------------|-6---4---3---3---|
A|-----------------|---4---4---4-----|-----------------|---4---4---4---4-|
E|---6---6---6---6-|-----------------|---2---2---2---2-|-----------------|

         Ebm                C#                C7              
  F
e|-----------------|-----------------|-----------------|-----------------|
B|-----------------|-----------------|-----------------|-2---2---1---1---|
G|-----3---3-5-3---|-----3---3-5-3---|-----3---3-5-3---|-----------------|
D|-4---------------|-3---------------|---2-------------|-----------------|
A|---6---6-------6-|---4---4-------4-|-3-----3-------3-|-----------------|
E|-----------------|-----------------|-----------------|---1---1---1---1-|

         Bbm                C#                F#              
  C#
e|-----------------|-----------------|-----------------|-----------------|
B|-----6---4-------|-----------------|---------2---4---|-6---7---6---6---|
G|-6-----------6---|-5---3-----------|-3---5-----------|-----------------|
D|-----------------|---------6---3-6-|-----------------|-----------------|
A|-----------------|---4---4---4-----|-----------------|---4---4---4---4-|
E|---6---6---6---6-|-----------------|---2---2---2---2-|-----------------|

         Ebm                C#                C7              
  F
e|-----------------|-----------------|-----------------|-----------------|
B|-----------------|-----------------|-----------------|-2---2---1---1---|
G|-----3---3-5-3---|-----3---3-5-3---|-----3---3-5-3---|-----------------|
D|-4---------------|-3---------------|---2-------------|-----------------|
A|---6---6-------6-|---4---4-------4-|-3-----3-------3-|-----------------|
E|-----------------|-----------------|-----------------|---1---1---1---1-|


Jon: will only enter at 2nd turn
         Bbm                C#               F#               
  C#
G|-----------------|-----------------|-----------------|-----------------|
D|-----------------|-----------------|-----------------|-----------------|
A|-1-1-1-1-1-1-1-1-|-4-4-4-4-4-4-4-4-|-----------------|-4-4-4-4-4-4-4-4-|
E|-----------------|-----------------|-2-2-2-2-2-2-2-2-|-----------------|

         Ebm                C#               C7               
  F
G|-----------------|-----------------|-----------------|-----------------|
D|-----------------|-----------------|-----------------|-----------------|
A|-6-6-6-6-6-6-6-6-|-4-4-4-4-4-4-4-4-|-3-3-3-3-3-3-3-3-|-----------------|
E|-----------------|-----------------|-----------------|-1-1-1-1-1-1-1-1-|


Verse 1:
    Bbm                    C#
The gun is loaded when the glass is full
F#                        C#
   Down the hatch and the trigger's pulled
Ebm                  Bbm            F   F# A
   Off the wagon and back onto the stool
  Bbm                      C#
I know that when I stare into your eyes
F#                   C#
   I can see all the years of lies
Ebm                      Bbm       C7   F
   Ghosts and demons you never exorcised


Refrain 1:
        F#
All the friends that
          Bbm
I've ever known
         F#
Are the streetlamps
         Bbm
I follow home
        F#     G#
And I'm in the crowd
        C#   Ebm(Hold)
but I'm all alone
   C#     F
Oh Lord I just can't


Chorus:
Bbm                        C#
   Tear the moon from the stars tonight
F#                     C#
   Twist my arm like a knife tonight
Ebm                       Bbm
   And if you wanna leave that's alright
     F                    F#         Ebm
Well I'll just turn these tears into wine


Post Chorus:

Ian:
         Bbm                C#                F#              
  C#
e|-----------------|-----------------|-----------------|-----------------|
B|-----6---4-------|-----------------|---------2-------|-----------------|
G|-6-----------6---|-5---3-----------|-3---5-------3---|-----------------|
D|-----------------|---------6---3-6-|-----------------|-6---4---3---3---|
A|-----------------|---4---4---4-----|-----------------|---4---4---4---4-|
E|---6---6---6---6-|-----------------|---2---2---2---2-|-----------------|

         Ebm                C#                C7              
  F
e|-----------------|-----------------|-----------------|-----------------|
B|-----------------|-----------------|-----------------|-2---2---1---1---|
G|-----3---3-5-3---|-----3---3-5-3---|-----3---3-5-3---|-----------------|
D|-4---------------|-3---------------|---2-------------|-----------------|
A|---6---6-------6-|---4---4-------4-|-3-----3-------3-|-----------------|
E|-----------------|-----------------|-----------------|---1---1---1---1-|

Jon:
         Bbm                C#               F#               
  C#
G|-----------------|-----------------|-----------------|-----------------|
D|-----------------|-----------------|-----------------|-----------------|
A|-1-1-1-1-1-1-1-1-|-4-4-4-4-4-4-4-4-|-----------------|-4-4-4-4-4-4-4-4-|
E|-----------------|-----------------|-2-2-2-2-2-2-2-2-|-----------------|

         Ebm                C#               C7               
  F
G|-----------------|-----------------|-----------------|-----------------|
D|-----------------|-----------------|-----------------|-----------------|
A|-6-6-6-6-6-6-6-6-|-4-4-4-4-4-4-4-4-|-3-3-3-3-3-3-3-3-|-----------------|
E|-----------------|-----------------|-----------------|-1-1-1-1-1-1-1-1-|


Verse 2:
    Bbm
His fate was written
     C#
on a neon sign
F#             C#
   A DUI never changed his mind
Ebm
   He got hooked like a
Bbm              F   F# A
fish caught on a line
    Bbm
You never gave yourself
  C#
a chance to shine
F#
   Your destination's
  C#
a chalk outline
Ebm
   And when you get to the
C#                C7  F
gates you'll be denied


(Repeat Refrain 1)
(Repeat Chorus 1 twice)


Guitar Solo:

Ian:
           Bbm            C#            F#             C#
e|---|-------------|-------------|--------------|-------------|
B|---|-------------|-------------|--------------|-------------|
G|---|-3-------3-5-|-6-----------|-3--------3-5-|-6-----------|
D|-3-|----3--------|----6--4-3---|----6-4-6-----|----6--4-3---|
A|---|------4------|-----------4-|--------------|-----------4-|
E|---|-------------|-------------|--------------|-------------|

       Ebm            Bbm      F      F#     Ebm
e|--------------|------------|-5-|---------|------|
B|-4--------4---|------------|-6-|-7--7--7-|-4--6-|
G|----6-5-6---5-|-6--5--3--6-|-5-|-6--6--6-|-3----|
D|--------------|------------|---|---------|------|
A|--------------|------------|---|---------|------|
E|--------------|------------|---|---------|------|

       Bbm             C#            F#            C#/F
e|-6--------6-8-|-9-----------|-6--------6-8-|-9-----------|
B|----6---6-----|----9--7-6---|-7--9-7-9-----|----9--7-6---|
G|------6-------|-----------6-|--------------|-----------6-|
D|--------------|-------------|--------------|-------------|
A|--------------|-------------|--------------|-------------|
E|--------------|-------------|--------------|-------------|

       Ebm             C#       C7  F#  F
e|-2------------|-6-----------|---|-6-|-5-|
B|-4--6-4-6-4-6-|----6--4-----|-1-|-6-|-6-|
G|--------------|---------6-3-|-3-|---|---|
D|--------------|-------------|---|---|---|
A|--------------|-------------|---|---|---|
E|--------------|-------------|---|---|---|


Jon:
         Bbm                C#               F#               
  C#
G|-----------------|-----------------|-----------------|-----------------|
D|-----------------|-----------------|-----------------|-----------------|
A|-1-1-1-1-1-1-1-1-|-4-4-4-4-4-4-4-4-|-----------------|-4-4-4-4-4-4-4-4-|
E|-----------------|-----------------|-2-2-2-2-2-2-2-2-|-----------------|

         Ebm                C#               F              
F#     Ebm
G|-----------------|-----------------|-----------------|---------|------|
D|-----------------|-----------------|-----------------|---------|------|
A|-6-6-6-6-6-6-6-6-|-4-4-4-4-4-4-4-4-|-----------------|---------|-6--6-|
E|-----------------|-----------------|-1-1-1-1-1-1-1-1-|-2--2--2-|------|

         Bbm                C#               F#               
  C/F
G|-----------------|-----------------|-----------------|-----------------|
D|-----------------|-----------------|-----------------|-----------------|
A|-1-1-1-1-1-1-1-1-|-4-4-4-4-4-4-4-4-|-9-9-9-9-9-9-9-9-|-8-8-8-8-8-8-8-8-|
E|-----------------|-----------------|-----------------|-----------------|

         Ebm                C#               C7               
  F
G|-----------------|-----------------|-----------------|-----------------|
D|-----------------|-----------------|-----------------|-----------------|
A|-6-6-6-6-6-6-6-6-|-4-4-4-4-4-4-4-4-|-3-3-3-3-3-3-3-3-|-----------------|
E|-----------------|-----------------|-----------------|-1-1-1-1-1-1-1-1-|


Breakdown: F#--Bbm-- x2


Refrain 2:
        F#                          Bbm
All the friends that I've ever known
         F#                      Bbm
Are the streetlamps I follow home
    F#         Bbm
The tide keeps pulling me down
  F#     Bbm
I try to reach higher ground
     F# G#  C#          Ebm(hold)
I'll ne-ver give up and drown
     C#       F
Even though I just can't


(Repeat Chorus twice)


Outro: While doing the intro 2nd turn for both Ian and Jon
Bbm C#
    Tears into wine
F#  C#             Ebm C#
    Tears into wine
     F
Well I'll just
     F#               Ebm Bbm(hold)
turn these tears into wine

More chords by Billy Talent: