Big Boi - All Night Guitar Chords

Big Boi

dirty south rap, hip hop, pop rap, southern hip hop

Chords: E, A, D, G, B, D#, G#m
All Night by Big Boi


E A D G B E


NO CAPO VERSION:

[Intro]
       B               D#                      G#m             E
e|---2--2--------------6-----------------------4--4-----------0---0------------|
B|---4--4--------------8-----------------------4--4-----------0---0------------|
G|---4--4--------------8-----------------------4--4-----------1---1------------|
D|---4--4--------------8-----------------------6--6-----------2---2------------|
A|---2--2--2--3--4--6--6--6--4--6--4--2--------6--6-----------2---2------------|
E|---2--2--------------6-----------------4--2--4--4--4--3--2--0---0--4--2--4---|



rest of the times through

       B               D#                      G#m             E
e|---2--2--------------6-----------------------4--4-----------0---0-----------------------|
B|---4--4--------------8-----------------------4--4-----------0---0-----------------------|
G|---4--4--------------8-----------------------4--4-----------1---1-----------------------|
D|---4--4--------------8-----------------------6--6-----------2---2-----------------------|
A|---2--2--2--3--4--6--6--6--4--6--4--2--------6--6-----------2---2-----------2-----------|
E|---2--2--------------6-----------------4--2--4--4--4--3--2--0---0--4--2--4-----4--2--4--|




CAPO VERSION:  CAPO 7
first time through (intro)

e|--0--0----------------4--2--0--2--0----------------------------------------|
B|--0--0--------------------------------2--0--2--2---------------2--0--2-----|
G|--1--1--------------------------------------1--1---------------------------|
D|--2--2---------------------------------------------------------------------|
A|--2--2--------------------------------------4--4--4--3--2--0---------------|
E|--0--0--0--1--2--4---------------------------------------------------------|

rest of the times through

e|--0--0----------------4--2--0--2--0--------------------------------0-------|
B|--0--0--------------------------------2--0--2--2-------------2-0-2--2-0-2--|
G|--1--1--------------------------------------1--1---------------------------|
D|--2--2---------------------------------------------------------------------|
A|--2--2--------------------------------------4--4--4--3--2--0---------------|
E|--0--0--0--1--2--4---------------------------------------------------------|




Chords for the whole song:

[Intro]

Get by!
B  D#  G#m  E

[Chorus]
 B
If it's all right
D#                        G#m               E
I wanna kick it with you all night, all night
     B
Have a good time
 D#                          G#m                     E
Ain't gotta worry 'cause it's all right, it's all right
     B                         D#
All night, and all night, and all night, baby
     G#m                      E
Don't be shy, don't be shy, don't be shy, baby
      B
All night and all night
    D#                      G#m                      E
Ain't gotta worry 'cause it's all right, it's all right


[Verse 1]
      B                  D#
It's alright, it's okay, everybody gonna say what they wanna say
     G#m
Players gonna play when they wanna play
     E                                  B
Long way, only for one night like Luther Vandross, right?
        D#
No way, Daddy Fat Saxxx don't skip no days
      G#m
To eat her, meet her, greet her
     E
Treat her like a queen then I give her that peter, jack
   B
That's how we procreate
    D#
Take care my babies, I'mma cope the weight
     G#m                                          E
I'mma carry the load, and I'mma win the bread, as well

No tricking off with my girl
      B                       D#
Your chicken all on my girl, she thick with all of her curves
    G#m
Plus she got a mind on her
     E
Street smart, book smart, built by design for me
     B                       D#
Gotta hold her up, 'cause she always holding me down
       G#m
Like a bank robber with a note, give it to the teller
    E
So she know we ain't fucking around
    B
It's something 'bout that company
     D#
I send for you if you come for me
    G#m           E
                      Come for me


[Chorus]
 B
If it's all right
D#                        G#m               E
I wanna kick it with you all night, all night
     B
Have a good time
 D#                          G#m                     E
Ain't gotta worry 'cause it's all right, it's all right
     B                         D#
All night, and all night, and all night, baby
     G#m                      E
Don't be shy, don't be shy, don't be shy, baby
      B
All night and all night
    D#                      G#m                      E
Ain't gotta worry 'cause it's all right, it's all right


[Verse 2]
     B
It's alright, it's okay
D#
I been feeling good, now a nigga feeling great
 G#m
Started out as a little hood nigga from Savannah
   E
Then I moved to the A (AYE!)
    B              D#
Dirty, dirty, see we grew up on Vogues and 30s
   G#m
Sucking up game like a WetVac
  E
Put it out, eat it up, get it right back
    B                  D#
They ain't worthy, sometimes I think they don't deserve me
   G#m
Big cold as the ice in your night cap
    E
Hit you with your bonnet on by the night-lamp
   B                      D#
We don't discriminate, we just want you to participate
      G#m
It takes two to tango, now where the day go?
     E
This ain't that same old, same old, old same shit
     B                                   D#
We done switched it up like a plain clothes
         G#m                   E
5-0, 12: same code, my flow? Hell, stay froze
  B
It's something 'bout that company
   D#
I send for you if you come for me
G#m               E
                      Come for me


[Chorus]
 B
If it's all right
D#                        G#m               E
I wanna kick it with you all night, all night
     B
Have a good time
 D#                          G#m                     E
Ain't gotta worry 'cause it's all right, it's all right
     B                         D#
All night, and all night, and all night, baby
     G#m                      E
Don't be shy, don't be shy, don't be shy, baby
      B
All night and all night
    D#                      G#m                      E
Ain't gotta worry 'cause it's all right, it's all right


[Bridge]
 B     D#                                  G#m
     I just wanna boogie with you, with you
    E                                B
Do anything that you wanna do, wanna do
     D#                         G#m                  E
Girl, I just wanna boogie with you, with you, with you
   B
Ahh, yeah
  D#                                 G#m
I just wanna boogie with you, with you
   E                                 B
Do anything that you wanna do, wanna do
    D#                           G#m                 E
Girl, I just wanna boogie with you, with you, with you
  E  
Woo  (Extra measure on E)


[Chorus]
 B
If it's all right
D#                        G#m               E
I wanna kick it with you all night, all night
     B
Have a good time
 D#                          G#m                     E
Ain't gotta worry 'cause it's all right, it's all right
     B                         D#
All night, and all night, and all night, baby
     G#m                      E
Don't be shy, don't be shy, don't be shy, baby
      B
All night and all night
    D#                      G#m                      E
Ain't gotta worry 'cause it's all right, it's all right

[Outro]
B  D#  G#m  E

More chords by Big Boi: