Beyoncé - Forward Guitar Chords

Beyoncé

dance pop, pop, post-teen pop, r&b

Chords: Gm, Gm7, D#/A#, D/A, Bb/F, D#maj7, D#, F, D5, Dm, A#, Fsus4
[Verse 1: James Blake]

       Gm   Gm7  D#/A#  D/A     
e|-----------------------------|
B|-----------------------------|
G|-----3-----3-----3-----2-----|
D|-----5-----3-----1-----0-----|
A|-----5-----5-----1-----0-----|
E|-----------------------------|

Gm   Gm
     Forward
                Bb/F
Best foot first just in case
                      D#/A#
When we made our way 'til now
          D#/A#                         D/A
It's time to listen, it's time to fight,   forward
Gm                    Bb/F                   
   Now we're going to hold doors open for a while
Gm                    D#/A#
   Now we can be open for a while
D/A        
Forward


[Verse 2: James Blake]

     D#maj7  D#    F      D5
e|------------------------------|
B|-----8-----8-----10-----3-----|
G|-----7-----8-----10-----2-----|
D|-----8-----8-----10-----0-----|
A|-----6-----6-----8------------|
E|------------------------------|

D#maj7                  D#                     F
   I love you more than this job, please don't work for me
D5
Forward


[Verse 3: James Blake + Beyoncé]

       Dm    Gm    A#   Fsus4  Gm7             D/A
e|-----1----------------------------------------------|
B|-----3-----3-----3-----1----------------------------|
G|-----2-----3-----3-----3-----3-----3----3-----2-----|
D|-----0-----5-----0-----0-----0-----0----0-----0-----|
A|----------------------------------------------0-----|
E|----------------------------------------------------|

   Dm           Gm            A#       Fsus4     Gm7
Go back to your sleep in your favorite spot just next to me
       D/A
Forward  

More chords by Beyoncé: