Believe - The Warmest Sun In Winter Guitar Chords

Believe

country rap, deep southern trap

Chords: C, Dm, G#m, F#, C#m, D#m, F, Gm, B, A, E
---------------------------------------------------------------------------------------------------
                                          Artist - Believe
                                         ******************
                                   Song - The Warmest Sun In Winter
                                  **********************************
                                  Album - The Warmest Sun In Winter  
                                 ***********************************
                                        Tabbed By - Ayreon77
                                       **********************
---------------------------------------------------------------------------------------------------
Tuning = Standard


INTRO
******
RIFF 1 - C Dm                        s     s  s
e|--s-------|--s-------|--s-------|-6\8---8\10\-|
B|-8\10-8-6-|-8\10-8-6-|-8\10-8-6-|-------------|
G|----------|----------|----------|-------------|
D|----------|----------|----------|-------------|
A|----------|----------|----------|-------------|
E|----------|----------|----------|-------------|X2


------------------------------------
00:24
Picking Through The VERSE
  C        Dm
e|-8------|-8-------|
B|---8----|---10----|
G|-----10-|------10-|
D|--------|---------|
A|--------|---------|
E|--------|---------|

VERSE 1
********
          C
Remind my words
              Dm
When we'll be heaven
         C
Locked between
      Dm
Two beginnings
        C
Land of fear
       Dm    
Nearly full of tears
     C
Only joys
   Dm
Of hungry since


------------------------------------
RIFF 1 - C Dm                        s     s  s
e|--s-------|--s-------|--s-------|-6\8---8\10\-|
B|-8\10-8-6-|-8\10-8-6-|-8\10-8-6-|-------------|
G|----------|----------|----------|-------------|
D|----------|----------|----------|-------------|
A|----------|----------|----------|-------------|
E|----------|----------|----------|-------------|X2


------------------------------------
01:12
Picking Through The VERSE
  C        Dm
e|-8------|-8-------|
B|---8----|---10----|
G|-----10-|------10-|
D|--------|---------|
A|--------|---------|
E|--------|---------|

VERSE 2
********
            C
There was a time
                  Dm
When we were like paradise
     C               Dm
To becomes hidden in faded eyes  Dm the last few times        
       C                Dm     |-10------|               
Joyful words and unread letter |----8----|            
         C          Dm         |------10-|   
Awakened souls in a shelter    |---------|      
                               |---------|  
                               |---------|

------------------------------------
Play This Small Solo Through CHORUS
e|---s-------s------------------|---s-------s-------s-----------s--------s-|--s----------------|
B|-10\12---12\14---12----9--5-4-|-10\12---12\14---14\16---14--14\-12---12\-|-8\10~~~~~~~~~~~~~-|
G|------------------------------|------------------------------------------|-------------------|
D|------------------------------|------------------------------------------|-------------------|
A|------------------------------|------------------------------------------|-------------------|
E|------------------------------|------------------------------------------|-------------------|

CHORUS
*******
G#m                F#
Days came from the dark
C#m           G#m
Still getting young
    D#m      C#m
How did they survive
G#m                   C#m
Now we stand with our lives
G#m
Burning in sight
     D#m       F#
Like silver of gods


------------------------------------
BREAK - C F Dm Gm 
******
Bass
------------------------------------
02:30
RIFF 1 - F Gm Dm                     s     s  s
e|--s-------|--s-------|--s-------|-6\8---8\10\-|
B|-8\10-8-6-|-8\10-8-6-|-8\10-8-6-|-------------|
G|----------|----------|----------|-------------|
D|----------|----------|----------|-------------|
A|----------|----------|----------|-------------|
E|----------|----------|----------|-------------|


------------------------------------
Play this picking with VERSE 3
e|-10------10------10------10------10------10-------10-------10-------10-------|
B|----13------13------13------13------13------13-------13-------13-------10----|
G|-------12------12------12------12------12------12-------12-------12-------12-|
D|-----------------------------------------------------------------------------|
A|-----------------------------------------------------------------------------|
E|-----------------------------------------------------------------------------|


VERSE 3
********
    C                    
I receive                    
              Dm                
Your sleeping whispers             
        C                   
Telling them             
                     Dm                   
That you're a little wild


------------------------------------
Play This Small Solo Through CHORUS
e|---s-------s------------------|---s-------s-------s---------------|
B|-10\12---12\14---12----9--5-4-|-10\12---12\14---14\16---14--12-14-|
G|------------------------------|-----------------------------------|
D|------------------------------|-----------------------------------|
A|------------------------------|-----------------------------------|
E|------------------------------|-----------------------------------|

CHORUS
*******
G#m                F#
Stars remember the time
C#m          G#m
When we were young
    D#m             C#m
And trying to climb high
G#m    F#
Now we stand with our lives
G#m
Burning inside
     D#m       F#
Like silver of gods


------------------------------------
03:21
Play this with the BRIDGE
     s     s   s                                  s     s    s                               s
e|-12\14~~~\--12\14-12-11-----------------s---|-12\14~~~\--12\14-12-11-----------------s---12\14-|
B|------------------------14--12~~-14~~-14\16-|------------------------14--12~~-14~~-14\16-------|
G|--------------------------------------------|--------------------------------------------------|
D|--------------------------------------------|--------------------------------------------------|
A|--------------------------------------------|--------------------------------------------------|
E|--------------------------------------------|--------------------------------------------------|

BRIDGE
*******
B
When you feel there's not enough
A
Your warmest sun
     C#m    E
When ray is every
B
Everything you carry on
A
You're really us
C#m          E
Shows me the right way
   B
To go.. 


------------------------------------
03:45
SOLO - A C#m E B
*****      h 
e|-14~~--12-14---h-----b-r---s--------------|----------|----------|-------------------|
B|-------------12-14--14--12-\9--9------s---|------s---|------s---|-------------------|
G|---------------------------------8-9-9\11-|-8-9-9\11-|-8-9-9\11-|---------s-----s---|
D|------------------------------------------|----------|----------|-9-~~~~-9\11-11\13-|
A|------------------------------------------|----------|----------|-------------------|
E|------------------------------------------|----------|----------|-------------------|

04:09                                                              s
e|-------------|-------------|--------Whammy----------/\/\/\/\/\/\-\-|
B|----------s--|-------------|--s-----/\/\/\/\/\/\--9----------------|
G|-4-6-4-6-6\8-|-4-6-4-6-6\9-|-9\11----------------------------------|
D|-------------|-------------|---------------------------------------|
A|-------------|-------------|---------------------------------------|
E|-------------|-------------|---------------------------------------|


e|-------------|-------------|------------s---|-19-------|-19-------|-21-------|-21-------|
B|----------s--|----------s--|-12-14-16-16\19-|----17-16-|----17-16-|----17-16-|----17-16-|
G|-4-6-4-6-6\8-|-4-6-4-6-6\9-|----------------|----------|----------|----------|----------|
D|-------------|-------------|----------------|----------|----------|----------|----------|
A|-------------|-------------|----------------|----------|----------|----------|----------|
E|-------------|-------------|----------------|----------|----------|----------|----------|


e|--------------------s-/\/\/\/\---/\/\/\/\/\-|-19-------|-19-------|-21-------|-21-------|
B|-/\/\/\/\/\/\/\/\-16\18--------16-----------|----17-16-|----17-16-|----17-16-|----17-16-|
G|-16---------------16\18--------16-----------|----------|----------|----------|----------|
D|-16-----------------------------------------|----------|----------|----------|----------|
A|--------------------------------------------|----------|----------|----------|----------|
E|--------------------------------------------|----------|----------|----------|----------|


e|-----------------------------------|-UB-/\/\/\/\/\/\-UB-/\/\/\/\/\/\---/\/\/\/\/\------------14-|
B|-/\/\/\/\/\/\/\/\---h--------------|-16--------------16--------------16------------b------------|
G|-16---------------16-18---h--------|-18--------------18--------------16-----------18~~~~-18-----|
D|-16---------------------16-18------|------------------------------------------------------------|
A|--------------------------------16-|------------------------------------------------------------|
E|-----------------------------------|------------------------------------------------------------|


e|--/\/\/\/\/\/\/\/\--/\/\/\/\/\/\/\/\--/\/\/\/\/\/\------------------------------------------s-|
B|-18----------------18----------------16--------------b---b-r-16\/\/\/\/\/\/\/\/\/\/\/\/\/\--\-|
G|-18----------------18----------------16-------------18--18---16-----------------------------\-|
D|----------------------------------------------------------------------------------------------|
A|----------------------------------------------------------------------------------------------|
E|----------------------------------------------------------------------------------------------|



ENJOY.......

More chords by Believe: