Believe - Beginners Guitar Chords

Believe

country rap, deep southern trap

Chords: Cm, Eb, F, Bb, Fm, Gm, Am, G#, C#
-----------------------------------------------------------------------------
                                          Artist - Believe
                                         ******************
                                          Song - Beginners 
                                         ******************
                                  Album - The Warmest Sun In Winter 
                                 ***********************************
                                        Tabbed By - Ayreon77
                                       **********************
-----------------------------------------------------------------------------
Tuning = Standard


UB = Union Bend


INTRO - Piano
******

Heavy Chords - Cm Eb F

00:39
RIFF 1
*******
e|-13-11-----------------|-13-11-----------------|-13-11-----------------|-13-11-------------------------|
B|-------13-11-----------|-------13-11-----------|-------13-11-----------|-------13-11-------------------|
G|--------------12-10----|--------------12-10----|--------------12-10----|--------------12-10-------s----|
D|--------------------13-|--------------------13-|--------------------13-|---------------------13-13\15~~|
A|-----------------------|-----------------------|-----------------------|-------------------------------|
E|-----------------------|-----------------------|-----------------------|-------------------------------|


e|---------|
B|---------|
G|---s-----|
D|-15\17~~~|Repeat
A|---------| riff 1 
E|---------|    X2


----------------------------------------------
01:07
SOLO 1
*******                                                s        s    s
e|-11---11-11-10-11----|---h------|-11---11-11-10-11-11\13----13\15--\-|
B|------------------11-|-11-13----|------------------------------------|
G|---------------------|-------10-|------------------------------------|
D|---------------------|----------|------------------------------------|
A|---------------------|----------|------------------------------------|
E|---------------------|----------|------------------------------------|

 
e|-15-16-18-|-15-16-18-|-15-16-18-13-|-13-15-16-|-13-15-16-|-11-13-15----|
B|----------|----------|-------------|----------|----------|----------13-|
G|----------|----------|-------------|----------|----------|-------------|
D|----------|----------|-------------|----------|----------|-------------|
A|----------|----------|-------------|----------|----------|-------------|
E|----------|----------|-------------|----------|----------|-------------|X2

01:38                                             s         s      s
e|-11----11-10-11----|---h------|-11---11-10-11-11\13-----13\15--15\-|
B|----------------11-|-11-13----|------------------------------------|
G|-------------------|-------10-|------------------------------------|
D|-------------------|----------|------------------------------------|
A|-------------------|----------|------------------------------------|
E|-------------------|----------|------------------------------------|


e|-15-16-18-|-15-16-18-|-15-16-18-13-|-13-15-16-|-13-15-16-|-11-13-15----|   |----|
B|----------|----------|-------------|----------|----------|----------13-|   |-13-|
G|----------|----------|-------------|----------|----------|-------------|   |----|
D|----------|----------|-------------|----------|----------|-------------|   |----|
A|----------|----------|-------------|----------|----------|-------------|   |----|
E|----------|----------|-------------|----------|----------|-------------|X2 |----|

02:13
e|----------13-|
B|-15--16------|
G|-------------|
D|-------------|
A|-------------|
E|-------------|


--------------------------------------------
VERSE 1
******** 
Cm    Eb      Bb       Fm
Words can not describe
        Cm
Live in time
Eb       Bb   Fm
In ocean side
       Cm
What I found, found
             Bb     Cm
Take by your side

It's the sign, sign
Bb               Cm
Of glowing past


--------------------------------------------
02:55
Play This With CHORUS Below
e|------------------------------|------------------------------|
B|----------6-8------s------s---|----------6-8------s------s---|
G|-5--5-7-8-----8---8\10--10\12-|-5--5-7-8-----8---8\10--10\12-|
D|------------------------------|------------------------------|
A|------------------------------|------------------------------|
E|------------------------------|------------------------------|

03:12                        s      s                               s      s
e|-----------11-13-15-11---11\13--13\15-|-----------11-13-15-11---11\13--13\15-|
B|-13--13-15----------------------------|-13--13-15----------------------------|
G|--------------------------------------|--------------------------------------|
D|--------------------------------------|--------------------------------------|
A|--------------------------------------|--------------------------------------|
E|--------------------------------------|--------------------------------------|
CHORUS
*******
Cm                        Eb    Fm
Now I know where it's the life
Cm                    Eb    Fm
Why can we get out of signs
Cm                               Gm    Fm
Don't care if we're crossing the line
Cm                           Eb     Fm Gm
Catch reflections of our own lives


e|-13-11-------|
B|-------13-11-|
G|-------------|
D|-------------|
A|-------------|
E|-------------|


--------------------------------------------
VERSE 2
********
         Cm   Bb            Cm
Let's go back to me and I               03:46
                  Bb                Cm  Volume Pedal/Knob
Small round turns gave us the light     |-13--15-----|-13--15--------|
                                        |---------15-|--------15--13-|                                       
Loud as twins                           |------------|---------------|        
      Bb                   Cm           |------------|---------------|   
Twins went up in flames                 |------------|---------------|                 
               Bb                  Fm   |------------|---------------|   
Memorize minds fall forever young                                  


--------------------------------------------
CHORUS - Same Small Solo See Above
*******
Cm                        Eb
Now I know where it's the life
 Fm         Gm
(Behind the river)
Cm                    Eb
Why can we get out of signs
    Fm            Gm
(We don't need to breathe in)
      Cm                         Gm
Don't care if we're crossing the line
 Fm        Gm
(We're not beginners)
Cm                       Eb
Catch reflections of our lives
 Fm         Gm
(Behind the river)


--------------------------------------------
04:31
RIFF 1
*******
e|-13-11-----------------|-13-11-----------------|-13-11-----------------|-13-11------------------|
B|-------13-11-----------|-------13-11-----------|-------13-11-----------|-------13-11------------|
G|--------------12-10----|--------------12-10----|--------------12-10----|--------------12-10-----|
D|--------------------13-|--------------------13-|--------------------13-|---------------------13-|
A|-----------------------|-----------------------|-----------------------|------------------------|
E|-----------------------|-----------------------|-----------------------|------------------------|


--------------------------------------------
VERSE 3 - Grungy Sounding Guitar
********
Am            G#
Don't tell me hoping 
     Am              G#
Happiness comes from nothing
                            Cm
When you found your road to freedom
          C#
Won't you stand
      Am           G#
Don't go just come closer
       Am                    G#
Listen shells are whispering something
                         Cm
Is it where to touch the water
         C#
Just say yes

In the end of this game


--------------------------------------------
05:17
SOLO 2 - Cm Bb Fm
*******
   UB  UB                                                             UB       UB        UB
e|-8---8-r----------|-------------|-------------|-------------------|-10-------8---------10-------|
B|-11--11--11--b-r--|------h-p----|------h-p----|------h-p----------|-13~~~~~~~11~~~~~~~~13~~~~~~~|
G|------------10--8-|---8-7-8-7---|---8-7-8-7---|---8-7-8-7-----s---|-----------------------------|
D|------------------|--x--------8-|--x--------8-|--x--------8--8\10-|-----------------------------|
A|------------------|-x-----------|-x-----------|-x-----------------|-----------------------------|
E|------------------|-------------|-------------|-------------------|-----------------------------|

                 whammy                    
e|---h--s--|--h--/\/\/\--h--/\/\/\--h--/\/\/\--h--/\/\/\---s------s---11-|
B|-11-13\8-|-8-11-------8-11-------8-11-------8-11-------11\13--13\15----|
G|---------|-------------------------------------------------------------|
D|---------|-------------------------------------------------------------|
A|---------|-------------------------------------------------------------|
E|---------|-------------------------------------------------------------|

05:48
This is kinda hard to explain or to write out, I,m thinking he,s just shaking the whammy bar
as he hits the notes, this is an add lib part
             Whammy
     h  h    /\/\/\/\/\/\/\/\/\/\/\/\/\/\/\/\/\/\/\/\/\/\/\/\/\/\/\/\/\/\/\/\/\/\/\/\/\/\/\/\/\/\/\
e|-10-11-13-|-10-11-13-|-10-11-13-|-10-11-13-|-10-11-13-|-10-11-13-|-10-11-13-|-10-11-13-|-10-11-13-|
B|----------|----------|----------|----------|----------|----------|----------|----------|----------|
G|----------|----------|----------|----------|----------|----------|----------|----------|----------|
D|----------|----------|----------|----------|----------|----------|----------|----------|----------|
A|----------|----------|----------|----------|----------|----------|----------|----------|----------|
E|----------|----------|----------|----------|----------|----------|----------|----------|----------|
          Whammy
     s    /\/\/\/\/\/\/\/\/\/\/\/\/\/\/\/\/\/\/\/\/\/\/\/\/\/\/\/\/\/\/\/\/\/\/\/\/\/\/\/\/\/\/\
e|-13\15-|-10-11-13-|-10-11-13-|-10-11-13-|-10-11-13-|-10-11-13-|-10-11-13-|-10-11-13-|-10-11-13-|
B|-------|----------|----------|----------|----------|----------|----------|----------|----------|
G|-------|----------|----------|----------|----------|----------|----------|----------|----------|
D|-------|----------|----------|----------|----------|----------|----------|----------|----------|
A|-------|----------|----------|----------|----------|----------|----------|----------|----------|
E|-------|----------|----------|----------|----------|----------|----------|----------|----------|

06:00
e|------s---------------|-------18----|-------18----|-------18-------s------s---|
B|-11-11\13----/\/\/\/\-|-15-16----16-|-15-16----16-|-15-16----16--16\18--18\20-|
G|-----------15---------|-------------|-------------|---------------------------|
D|----------------------|-------------|-------------|---------------------------|
A|----------------------|-------------|-------------|---------------------------|
E|----------------------|-------------|-------------|---------------------------|

                                                 Whammy
e|-------18----|-------18----|-------18-------s--/\/\/\/\/\/\-|
B|-15-16----16-|-15-16----16-|-15-16----16--16\18-------------|
G|-------------|-------------|--------------------------------|
D|-------------|-------------|--------------------------------|
A|-------------|-------------|--------------------------------|
E|-------------|-------------|--------------------------------|


--------------------------------------------
CHORUS - Same Small Solo See Above
*******
Cm                        Eb
Now I know where it's the life
 Fm         Gm
(Behind the river)
Cm                    Eb
Why can we get out of signs
    Fm            Gm
(We don't need to breathe in)
      Cm                         Gm
Don't care if we're crossing the line
 Fm        Gm
(We're not beginners)
Cm                       Eb
Catch reflections of our lives
 Fm         Gm
(Behind the river)


--------------------------------------------
06:50
e|--s----------s---s-----s--|--s-------s--s---s----------|--s----------s--------s----s--|
B|-8\13-----11-\8--\6---6\8-|-8\13---13\--11-\8--6-8-6-4-|-8\13---13-13\16--11--\6--6\8-|
G|--------------------------|----------------------------|------------------------------|
D|--------------------------|----------------------------|------------------------------|
A|--------------------------|----------------------------|------------------------------|
E|--------------------------|----------------------------|------------------------------|

                               07:21
e|--s--------s----------------|-13-11--------|
B|-8\13-13-13\16--11--6-8-6-4-|-------13-~~~-|
G|----------------------------|--------------|
D|----------------------------|--------------|
A|----------------------------|--------------|
E|----------------------------|--------------|




ENJOY.............

More chords by Believe: