Beck - Everybodys Got To Learn Sometime Guitar Chords

Beck

alternative rock, anti-folk, garage rock, indie rock

Song versions: 1 2 3 4 5 6 7 8 9 10 11
Chords: Cadd9, G-5, Em, Em/C#, Am/C, B, Am, D, Bm, G, Gm, Cm, F, Dm, Gm7#5
Artist: Beck
Title: Everybody's Gotta Learn Sometime
Tabbed by: Tuvan Soykan

Tuning: Standard
Capo: 3rd fret

Chords Used

   Cadd9   G-5
e|---3------3-----|
B|---3------2-----|
G|---0------0-----|
D|---2------0-----|
A|---3------2-----|
E|----------------|


[Intro]
    Em              Em/C#   Am/C
e|-------------------------------------|
B|--0---0---0--0----0---0---0---0------|
G|--0---0---0---0---0---0---0---0------|
D|--2---2---2---2---2---2---2---2------|
A|--2---2---2---2---4---4---3---3------|
E|--0---0---0---0----------------------|


[Verse]
Em                 Em/C#   Am/C    Em        Em/C#  Am/C
  Change your heart,         look around you.
Em                 Em/C#   Am/C         Em        Em/C#  Am/C
  Change your heart,         it will astound you.
  Em              B          Am      D
I need your loving like the sunshine.

[Chorus]
    Bm                      Cadd9    Am
And everybody’s gotta learn sometime
Bm                      Cadd9    Am
Everybody’s gotta learn sometime
Bm                      Cadd9   D         G G-5
Everybody’s gotta learn sometime, hmm-hmm hmm

[Verse], [Chorus], [Solo]

  Gm              D          Cm      F
I need your loving like the sunshine.

    Dm                      Gm7#5    Cm
And everybody’s gotta learn sometime
Dm                      Gm7#5    Cm
Everybody’s gotta learn sometime
Dm                      Gm7#5   F         G G-5
Everybody’s gotta learn sometime, hmm-hmm hmm

More chords by Beck: