Beck - Dont Let It Go Guitar Chords

Beck

alternative rock, anti-folk, garage rock, indie rock

Song versions: 1 2
Chords: G, C/G, F, Am7, Am, Em, B, A, D/F#, Fmaj7, D, Bb6, C
[Intro]
e|----------------------------|
B|------0-1-0-----------------|
G|--------------2---0---2---0-|
D|------0-2-0-----3-------2---| (x2)
A|-------------------0--------|
E|3-----------1---------------|

[Verse]
G  C/G  G  F    Am7 G
You better save yourself
G   C/G  G     F   Am7   G
From something you can't see
G  C/G G  F     Am7 G
Follow it where it goes
G  C/G G  F    Am Em
Follow it back to me
     F
I'll keep it here

[Chorus]
 /b /a /g D/F# 
e|----------------------0-2---|
B|------------------3-------3-|
G|0---------2---2-------------|
D|---4--2-----0-------0-------|
A|2--0------------------------|
E|------3-2-------2-------2---|

 /b /a /g Fmaj7                (x2)
e|----------------------------|
B|------------------1---------|
G|0---------2---2-------2-----|
D|---4--2-----3-------3-------|
A|2--0------------------------|
E|------3-1-------1-------1---|

B   A  G  D/F#
Don't let it go
             Fmaj7
Don't let it go
             D/F#
Don't let it go
             Fmaj7
Don't let it go away
Em                G        A B D
You don't have to let it go away

[Verse]
G    C/G  G    F     Am7 G
These are some faults we found
G   C/G  G   F    Am7 G
Hollowed out from the years
G    C/G  G    F    Am7 G
Don't let them wear you out
G    C/G  G    F    Am   Em
Don't let them turn your mind 
Fmaj7
inside out

[Chorus]
B   A  G  D/F#
Don't let it go
             Fmaj7
Don't let it go
             D/F#
Don't let it go
             Fmaj7
Don't let it go away
Em                G         A B D
You don't have to let it go away
Bb6                        D
In the crossfire there's a story
Bb6        Am             G
But how it ends we do not know
B   A  G  D/F#
Don't let it go (don't you see how far it's gone away?)
             Fmaj7
Don't let it go away
             D/F#
Don't let it go (don't you see how far it's gone away?)
             Fmaj7
             D/F#
Don't let it go (don't you see how far it's gone away?)
             Fmaj7
Don't let it go away
             D/F#
Don't let it go (don't you see how far it's gone away?)
             Fmaj7
Don't let it go away
Em                G         D
You don't have to let it go away

[Outro]
Em  F  
C   Am7  
D

More chords by Beck: