Beach House - Space Song Guitar Chords

Beach House

art pop, chamber pop, chillwave, dream pop

Song versions: 1 2 3 4 5
Chords: Eb, Cm, Fm, Bb, Gm, Ab
Standard Tuning EADGBe 


Intro: (play an octave up for the version on the record)


    Eb         Cm           Fm         Bb         Eb
    
e|--3~---4-3-1-3~~--1-----1-3~~~-4-3-1-3~~~--1---------|
B|---------------------4-----------------------4-3-4~~~|
G|-----------------------------------------------------|
D|-----------------------------------------------------|
A|-----------------------------------------------------|
E|-----------------------------------------------------| (x2)

or with chord:

    Eb         Cm           Fm         Bb         Eb
    
e|--6~--------8~~-----------8-~~--------6~~--------6----|
B|--8---9-8-6-8-------------9---9-8-----6----6---~~8----|
G|--8---------8----10-8-10--10------10--7------8-7-8----|
D|--8---------10------------10----------8----------8----|
A|--6---------10------------8-----------8----------6----|
E|------------8-------------------------6---------------| (x2)



Verse 1: 

Eb               Cm               Fm       Bb
It was late at night, you held on tight
Eb            Cm              Fm          Bb
From an empty sea, a flash of light 
Eb             Cm                Fm                        Bb    
It will take awhile, to make you smile, somewhere in these eyes, I'm on your side
Eb            Cm              Fm             Gm                    Eb   Gm  
                              You wide eye'd girl, you get it right........

Chorus 1: 

Cm   Gm  Fm Ab Eb     Gm
Fall back into place
Cm   Gm  Fm Ab Eb     Cm  Fm  Bb
Fall back into place


[play intro]


Verse 2: 

Eb            Cm                 Fm       Bb
Tender is the night, for a broken heart
Eb                Cm                  Fm       Bb
Who will dry your eyes, when it falls apart?
Eb                  Cm               Fm                 Bb
What makes this fragile, world go 'round? were you ever lost? was she ever found?
Eb            Cm                     Fm                 Gm      Eb   Gm  
                                     Somewhere in these eyes....

Chorus 2/outro: 

Cm    Gm   Fm Ab   Eb   Gm
Fall back into place
Cm    Gm   Fm Ab   Eb   Gm
Fall back into place
Cm    Gm   Fm Ab   Eb   Gm
Fall back into place
Cm    Gm   Fm Ab   Eb   Gm
Fall back into place



(till fade)

More chords by Beach House: