Beach House - Rough Song Guitar Chords

Beach House

art pop, chamber pop, chillwave, dream pop

Song versions: 1 2
Chords: G, C6, Bm, Em, D
-------------------------------------------------------------------------------
                             Beach House - Rough Song
-------------------------------------------------------------------------------
TabbeBm by:majorseventh
E-mail:cwarner3000@gmail.com

Tuning:EABmGBe
 

CHORDS FOR VERSES 1,2 &3
    G         C6               Bm     Em
e|-----------------------------------0-0-0-0-0------------------------------|
B|--12-12-12--10-10-10-10-10--7-7-7--0-0-0-0-0------------------------------|
G|--0--0--0---0--0--0--0--0---0-0-0-----------------------------------------|
D|-------------------------------------------------------------------------|
A|--10-10-10----------------------------------------------------------------|
E|------------8--8--8--8--8---7-7-7--0-0-0-0-0------------------------------|



CHORDS FOR BRIDGE and OUTRO (heard best at 3:35)
    G         C6              D         Em
e|---------------------------------------------------------------------------|
B|--12-12-12--12-12-12-10-10--10-10-10--12-12-12-12-12-----------------------|
G|--0--0--0---0--0--0--0--0---0--0--0---0--0--0--0--0------------------===---|
D|---------------------------------------------------------------------------|
A|--10-10-10-----------------------------------------------------------------|
E|------------8--8--8--8--8---10-10-10--12-12-12-12-12-----------------------|



VERSE 1
       G  C6         Bm  Em
In the middle of the party
        G  C6      Bm  Em
Found a hole to be sorry
            G  C6         Bm  Em
Through the glass drank a memory
       G  C6  Bm  Em
of her face


VERSE 2
        G  C6        Bm  Em
All the charm in the evening
 G  C6       Bm  Em
Peridot television
 G  C6    Bm  Em
Loveless another
 G  C6       Bm  Em
daughter and mother


Bridge
 G            C6                   Bm            Em
Shut the door she'll have no more another vodka cocktail party
 G        C6              Bm         Em
Her story unravels like a ribbon in the windy distance


VERSE 3
 G  C6           Bm  Em
Schoolgirls were praying
 G  C6        Bm  Em
Lace curtains fading
 G  C6      Bm  Em
Fern of the forest
 G  C6   Bm  Em
Dearly beloved


BRIDGE  
 G           C6                    Bm               Em
Heart to heart she spit on you and made your bloody nose more bloody
 G            C6                  Bm          Em
Shut the door she'll have no more another vodka cocktail party


OUTRO
G         C6

Bm         Em
Totems in the night
  G       C6  
I want to forget
Bm         Em
All that wasn't right
 G        C6       
I need to leave it

Bm         Em
Totems in the night
  G       C6  
I want to forget
Bm         Em
All that wasn't right
 G        C6       
I need to leave it

Bm         Em
Totems in the night
  G       C6  
I want to forget
Bm         Em
All that wasn't right
  G       C6  
She needs to leave it





************************************

| /   slide up
| \   slide Bmown
| h   hammer-on
| p   pull-off
| ~   vibrato
| +   harmonic
| x   Mute note
| b   Bend
| pb  Pre-bend
| br  Bend release
| pbr Pre-bend release
| brb Bend release bend

************************************

More chords by Beach House: