Beach House - Equal Mind Guitar Chords

Beach House

art pop, chamber pop, chillwave, dream pop

Chords: C#m, C#m/A, C#m/B, A, B, G#m
Tune all strings half step down EbAbDbGbBbEb

Chords are in relation to the tuning to make it easy (The song actually begins in key of Cm)
C#m   x4x12x
C#m/A x0x12x
C#m/B x2x12x
A     x02220
C#m   x4665x
B     x2444x
G#m   466444



Intro
     C#m
eb|---------------------------------------------------------------------------|
Bb|--0h2-0h2-0h2-0h2-0h2-0h2-0h2-0h2-0h2-0h2-0h2-0h2--------------------------|
Gb|-----1---1-------1---1-------1---1-------1---1-----------------------------|
Db|---------------------------------------------------------------------------|
Ab|--4-----------4-----------4-----------4------------------------------------|
Eb|---------------------------------------------------------------------------|
     C#m/A       C#m/B       C#m/A       C#m/B
eb|---------------------------------------------------------------------------|
Bb|--0h2-0h2-0h2-0h2-0h2-0h2-0h2-0h2-0h2-0h2-0h2-0h2--------------------------|
Gb|-----1---1-------1---1-------1---1-------1---1-----------------------------|
Db|---------------------------------------------------------------------------|
Ab|--0-----------2-----------0-----------2------------------------------------|
Eb|---------------------------------------------------------------------------|

[Verse 1]
A                 C#m      B
A silhouette that comes to me
A                C#m   B
As your state of infinity
A            C#m   B
Even in your equal mind
A                C#m          B
You were passing through this time


[Verse 2]
A             C#m  B
Delicate with no defense
    A              C#m        B
You honor what you love to no end
   A              C#m B
Perfection in the accident
A              C#m         B
Truly yours is just what I meant


[Chorus]
      C#m  G#m
Equal Mind
      C#m  G#m
Equal Mind
      A G#m A G#m
Equal Mind


C#m/A  C#m/B  C#m/A  C#m/B (played like Intro)


[Solo]
A  C#m  B  x 4


[Verse 3]
A           C#m           B
There is no way you could know
A                C#m           B
These waves they come and they go
A                 C#m         B
In blooms they're chasing the lights
A             C#m       B
Too soon they say these goodbyes


[Chorus]
      C#m  G#m
Equal Mind
      C#m  G#m
Equal Mind
      C#m  G#m
Equal Mind


[Outro]

     C#m/A       C#m/B       C#m/A       C#m/B
eb|---------------------------------------------------------------------------|
Bb|--2p0-2p0-2p0-2p0-2p0----2p0-2p0-2p0-2p0-----0-----------------------------|
Gb|-----1---1-------1---1-1----1---1-------1-1-1------------------------------| x 4
Db|----------------------4------------------4-4-------------------------------|
Ab|--0-----------2----------0-----------2-------------------------------------|
Eb|---------------------------------------------------------------------------|


      A G#m A G#m
Equal Mind

More chords by Beach House: