Barricada - Correr A Ciegas Guitar Chords

Barricada

galician rock, punk urbano, rock en espanol, spanish punk

Song versions: 1 2
Chords: D, C, B
Acordes utilizados:

      D      C      B
e|--------------------2-----|
B|----3-------1-------3-----|
G|----2-------0-------4-----|
D|----0-------2-------4-----|
A|------------3-------2-----|
E|--------------------------|


Intro 1:          ó            Intro 2:


e|---------------------|       e|---------------------|
B|-----3---------------|       B|-----3---6-----------|
G|-----2---------------|       G|-----2---55445(4)----|
D|---0-0-00------------|       D|---0-0-00------------|
A|---------3322-3(2)---|       A|---------------------|
E|---------------------| x4    E|---------------------| x4

(La que mejor os suene o mezclar ambas.)


D                       C           B             Intro (1 o 2)
Como un poso en tu café, síndrome del último cigarro.
D                   C           B                 Intro
Un dibujo del revés, desorden de piezas en las manos.
D                    C    B            Intro
Un querer y no poder, mirar encima y debajo?

Estribillo:

D              C               B
Correr a ciegas es como retroceder,
              C
Aquí no queda nada claro.
D              C               B
En el bater sentao empuja el orgullo.
              C
Esa es la única verdad.

Intro (yo aquí prefiero meter la 2)


D                     C     B               Intro
Simular que va muy bien, cada uno por su atajo.
D                         C    B             Intro
Frío invierno siempre gris, te acaba doblegando.
D                   C     B               Intro
Dinamita en los pies, preparado por si acaso.

Estribillo.

Y seguir la canción igual. Fácil

Halagos, cheques en blanco, favores sexuales, etc,
komounputoperro@

More chords by Barricada: