Barclay James Harvest - Sweet Jesus Guitar Chords

Barclay James Harvest

album rock, art rock, progressive rock, symphonic rock

Song versions: 1 2
Chords: A, G, D, F#m, E, C#m, Bm, C, F
-----------------------------------------------------------------------------
                                          Artist - Barclay James Harvest
                                         ********************************
                                               Song - Sweet Jesus 
                                              ********************
                                          Album - Time Honoured Ghosts 
                                         ******************************
                                              Tabbed By - Ayreon77
                                             **********************
-----------------------------------------------------------------------------
Tuning = Standard


UB = Union Bend


----------------------------
VERSE 1
********
A              G            D              A
   Where's the lady and the time I used to know
  D                    A               D
I think that I've been on the road too long
A           G               D              A
  Scenes of better days are pictured in my head
    D                 A            D       D
And haunting me those old familiar songs

----------------------------
CHORUS
*******
F#m         E             D
   Oh sweet Jesus hear me cry
F#m       E              D
   Let me see a clearing sky
    E              F#m          D
For tomorrow I may be back home again
A             E              D
  So take the shadow from my eyes


----------------------------
VERSE 2
********
A        G                 D               A
  Sunday morning comes I'm feeling kind of down
  D                 A            D
I can't see back to where it all began
A       G                  D           A
  And I know you'd help me if you only could
  D                 A              D   D
I don't know why or where or who I am


----------------------------
CHORUS
*******
F#m         E             D
   Oh sweet Jesus hear me cry
F#m       E              D
   Let me see a clearing sky
    E              F#m          D
For tomorrow I may be back home again
A             E              D
  So take the shadow from my eyes


----------------------------
SOLO - A C#m E G D Bm C G F D 
*****
e|-------------b-r---p-------|-------------|---p---------|----------------------------|
B|------10-12-12---10-9------|-----9-10-12-|-12-10-------|---h--h---------------------|
G|----9-----------------9----|-9-9---------|-------11----|-11-12-14-12-11-14-12-11-12-|
D|-11---------------------11-|-------------|----------12-|----------------------------|
A|---------------------------|-------------|-------------|----------------------------|
E|---------------------------|-------------|-------------|----------------------------|

                                          hold
e|------------------------------|-UB------bend--UB-UB-UB--UB--UB-UB-UB--UB-s-|
B|---h--h-----------------------|-10---b--|--|--10-10-10--10--10-10-10--10-\-|
G|-12-14-16-14--12--16-14-12-14-|-12--12-12-12--12-12-12--12--12-12-12--12-\-|
D|------------------------------|--------------------------------------------|
A|------------------------------|--------------------------------------------|
E|------------------------------|--------------------------------------------|


----------------------------
CHORUS
*******
F#m         E             D
   Oh sweet Jesus hear me cry
F#m       E              D
   Let me see a clearing sky
    E              F#m          D
For tomorrow I may be back home again
A             E              F#m  A
  So take the shadow from my ey...es 
D          E              D     
  Take the shadow from my eyes

A



ENJOY...........

More chords by Barclay James Harvest: