Barclay James Harvest - Mocking Bird Guitar Chords

Barclay James Harvest

album rock, art rock, progressive rock, symphonic rock

Song versions: 1 2 3
Chords: Emadd9, B7, Am, Em, D, G, D#aug, D4, B, Cmaj7, C, Daug, B7sus4, G/B
Song: Mockingbird
Artist: Barclay James Harvest
Composer: John Lees
Album: Once again
Tabbed by DJ
29th Jan 2016

Emadd9  = 022002   B7  = x21202   Am   = x02210
Em      = 022003   D   = xx0232   G    = 320033
D#aug   = xx1003   D4  = xx0233   B    = x24442
Cmaj7   = x32003   C   = x32010   Daug = xx0233
B7sus4  = x22202   G/B = x20033

[Verse riff]
 Emadd9 Em Emadd9 Em Emadd9 Em    D  D4   D   D4   D D4
e |---2---3---2----3----2--3--|---2---3---2----3---2--3--|
B |---0--0-----0-----0--------|---3--3-----3-----3-------|
G |-----0---------------------|-----0--------------------|
D |---2-----2----2------------|---0-----0----0-----------|
A |---------------------------|--------------------------|
E |---------------------------|--------------------------|

[End of Choruses, Break & Coda riff]
    Emadd9                      D#aug
e |---2---3---2----3----2--3--|---2---3---2----3----2--3--|
B |---0--0------0----0--------|---0--0------0----0--------|
G |-----0---------------------|-----0---------------------|
D |---2-----2-----2-----------|---1-----1-----1-----------|
A |---------------------------|---------------------------|
E |---------------------------|---------------------------|

    Cmaj7                        B7sus4       B7
e |---2---3---2----3----2--3--|---0---2---0---2---2---2---|
B |---0--0------0----0--------|---0--0--------0---0---0---|
G |-----0---------------------|-----2---------------------|
D |---------------------------|---------------1---2---4---|
A |---3-----3-----3-----------|---2-----2-----------------|
E |---------------------------|---------------------------|

**********************************************************************

[Intro]
    Emadd9                      D#aug
e |---2---3---2----3----2--3--|---2---3---2----3----2--3--|
B |---0--0------0----0--------|---0--0------0----0--------|
G |-----0---------------------|-----0---------------------|
D |---2-----2-----2-----------|---1-----1-----1-----------|
A |---------------------------|---------------------------|
E |---------------------------|---------------------------|

    Cmaj7                        B7sus4            B7
e |---2---3---2----3----2--3--|---0---2--0-----2----0--2--|
B |---0--0------0----0--------|---0--0-----0-----0--------|
G |-----0---------------------|-----2---------------------|
D |---------------------------|---------------------------|
A |---3-----3-----3-----------|---2-----2----2------------|
E |---------------------------|---------------------------|

    Emadd9                      D#aug
e |---2---3---2----3----2--3--|---2---3---2----3----2--3--|
B |---0--0------0----0--------|---0--0------0----0--------|
G |-----0---------------------|-----0---------------------|
D |---2-----2-----2-----------|---1-----1-----1-----------|
A |---------------------------|---------------------------|
E |---------------------------|---------------------------|

    Cmaj7                        B7sus4       B7
e |---2---3---2----3----2--3--|---0---2---0---2---2---2---|
B |---0--0------0----0--------|---0--0--------0---0---0---|
G |-----0---------------------|-----2---------------------|
D |---------------------------|---------------1---2---4---|
A |---3-----3-----3-----------|---2-----2-----------------|
E |---------------------------|---------------------------|


[Verse 1]
Emadd9  Em  Emadd9  Em   Emadd9  Em  D  D4  D  D4  D D4
 Rain,  sea, surf, sand, clouds and sky-------------,
Emadd9  Em  Emadd9  Em   Emadd9  Em  D  D4  D  D4  D
 Hush,  now  ba   - by    don't you cry-------------!


[Chorus]
             C                               Em
There's a mocking bird singing songs in the trees,
             C           G/B
There's a mocking bird singing songs,
 Am             Emadd9   D#aug         Cmaj7        B7sus4  B7
Just for you and me---!|  /  /  /  / |  /  /  /  / |  /  /  /  / |


[Verse 2]
Emadd9  Em  Emadd9  Em   Emadd9 Em   D  D4  D  D4  D D4
 Rain,  sea, surf, sand, clouds and sky-------------,
Emadd9  Em  Emadd9  Em   Emadd9 Em   D  D4  D  D4  D
 Time   will  see  your  tears  run dry-------------!


[Chorus]
            C                                Em
There's a mocking bird singing songs in the trees,
            C            G/B
There's a mocking bird singing songs,
 Am              D4    D
Just for you and me--------!


[Brass Break]
  G            Am            C             D4    D
| /  /  /  / | /  /  /  /  | /  /  /  / |  /  /  /  / |

  Em           Am            C             D4    D      D4    D
| /  /  /  / | /  /  /  /  | /  /  /  / |  /  /  /  / | /  /  /  / |


[Chorus]
             C                                Em
There's a mocking bird singing songs in the trees,
             C          G/B
There's a mocking bird singing songs,
 Am              Emadd9     D#aug         Cmaj7          B7sus4 B7
Just for you and me------! |  /  /  /  / |  /  /  /  / |  /  /  /  / |


[Verse 3]
Emadd9 Em  Emadd9  Em   Emadd9  Em   D   D4   D   D4    D     D4
 Rain, sea, surf, sand, clouds then sun-------------------,
                                  (Rain,sea,surf,sand,clouds, then...)

  Emadd9 Em Emadd9 Em Emadd9 Em  D    D4   D    D4   D
   Bless the tears of  love now gone------------------! 
(...sun---------------------!   Bless the tears of love!)


[Chorus]
             C                               Em
There's a mocking bird singing songs in the trees,
             C           G/B
There's a mocking bird singing songs,
  Am             Emadd9     D#aug         Cmaj7          B7sus4  B7
Singing just for me------! |  /  /  /  / |  /  /  /  / |  /  /  /  / |

 Emadd9        D#aug          Cmaj7          B7sus4 B7
|  /  /  /  / |  /  /  /  /  |  /  /  /  / |  /  /  /  / |


[Break]
Em                            D#aug
Ah---ah---hah---ah---ah, ah!  Ah---ah---hah---ah---ah, ah!
C                             B7sus4               B7
Ah---ah---hah---ah---ah, ah!  Ah---ah---hah---ah---ah, ah!

Em                            D#aug
Ah---ah---hah---ah---ah, ah!  Ah---ah---hah---ah---ah, ah!
C                             B7sus4               B7
Ah---ah---hah---ah---ah, ah!  Ah---ah---hah---ah---ah, ah!


[Slow Lead guitar break - Repeat x2]
    Em              D#aug            C            B7sus4    B7
e |--------|------|---------|-----|--------|-----|-------|---------|
B |-/5-/8--|-/12--|-/10-/8--|-/7--|-/5-/7--|-/8--|-/7-/5-|-/4-/12--|
G |--------|------|---------|-----|--------|-----|-------|---------|
D |--------|------|---------|-----|--------|-----|-------|---------|
A |--------|------|---------|-----|--------|-----|-------|---------|
E |--------|------|---------|-----|--------|-----|-------|---------|


[Fast Lead guitar break - Repeat x4]
     Em                              D#aug
e |---------------|---------------|--------------|----------------|
B |-----------10--|--12----10-12--|-13-12-10-----|--------10------|
G |--12-11-12-----|-----12--------|----------12--|--11-12----11---|
D |---------------|---------------|--------------|----------------|
A |---------------|---------------|--------------|----------------|
E |---------------|---------------|--------------|----------------|

     C                              B7sus4     B7
e |---------------|---------------|-----11--|---------------------|
B |-----------10--|--12----10-12--|--13-----|--12-10-10----10-12--|
G |--12-11-12-----|-----12--------|---------|-----------12--------|
D |---------------|---------------|---------|---------------------|
A |---------------|---------------|---------|---------------------|
E |---------------|---------------|---------|---------------------|


[Slow Link]
     C                           D#aug
e |----------------|------------|----------------|----------------|
B |----------------|--------12--|--12-11-11--12--|--12-11-11--10--|
G |--12-11-12--10--|--9-8-9-----|----------------|----------------|
D |----------------|------------|----------------|----------------|
A |----------------|------------|----------------|----------------|
E |----------------|------------|----------------|----------------|

    Daug             D#aug           D
e |----------------|-------------|---------------|----------------|
B |--11-10-10-11---|--11---10----|--/15----------|----------------|
G |----------------|-------------|---------------|----------------|
D |----------------|-------------|---------------|----------------|
A |----------------|-------------|---------------|----------------|
E |----------------|-------------|---------------|----------------|


[Brass Break]
  G            Am            C             D4    D
| /  /  /  / | /  /  /  /  | /  /  /  / |  /  /  /  / |

  Em           Am            C             D4    D      D4    D
| /  /  /  / | /  /  /  /  | /  /  /  / |  /  /  /  / | /  /  /  / |


[Orchestral Chorus]
  C                          Em
| /  /  /  / | /  /  /  /  | /  /  /  / |  /  /  /  / |

  C            G/B           Am
| /  /  /  / | /  /  /  /  | /  /  /  / |


[Coda]
   Emadd9        D#aug       Cmaj7        B7sus4 B7              Em
||: /  /  /  / | /  /  /  / | /  /  /  / | /  /  /  /:||[x2]  |  / ||

More chords by Barclay James Harvest: