BAP - Wellenreiter Guitar Chords

Song versions: 1 2
Chords: Em7, C, Am, G, F
Original in D, but here in C as the Major plays it with Capo: 2nd fret

Rhythm Gtr:     1   2 + 3 + 4 +
                d   d u d u d u
Fingerpick Gtr: M   D Z D M D Z  (Siehe BAP-Buch S. 37)

Em7: 022030


[Riff 1]

E|---------|
B|---------|
G|---------|
D|---------|
A|---0-2-3-|
E|-3-------|


[Intro]

|: C  Em7  Am  G :| (Bei Am Hammer on B-1-)             


[Verse 1]

C       Em7                     Am           G
N'abend Wellenreiter, saach wie jeht et dir?
F                              C
Höchstens ald ens zweiter oder dritter
                        G
ävver miehßtens nit ens Nummer vier
         C            Em7            Am             F
läuvs do pausenlos dä Trends wie 'ne Komparse hingerher
C                   G            C       R1
echt, dat däät mich öden un zwar schwer.         


[Verse 2]

C           Em7              Am            G
Wie e Wetterfähnche driehßte dich em Wind,
F                          C
woher dä jraad weht es dir ejal
                              G
de Hauptsaach ess, et ess der neuste Wind
        C                     Em7             Am           F
vun dir selvs blieht kaum jet övvrich, nur op dat wat ahnjesaat
C                G                 C    R1
fährste aff, als bröötstse en Schublad.


[Verse 3]

C            Em7                Am           G
Wat ess bloß passiert dat do su mutlos bess,
F
dat ding Power fott ess
       C                        G
dat do dich dermaßen selver opjejovven häss,
       C                 Em7             Am                F
ratlos römmläuvs wie 'ne Schatt, dä sich kleinmäht wie 'ne Zwerch,
C                G                 C      R1
der mit vüürkütt wie 'ne Ohß vüürm Berch.


[Verse 4]

C               Em7               Am          G 
Hühr ens, Wellenreiter, t'ess nit alles Driss
F
t'süht zwar baal su uss,
              C                                   G
doch et künnt sinn, - dat jenachdem - noch jet ze ändre ess
     C                 Em7                Am           F
nur, wie du jetz bess, pass do dänne janz prima ent Konzept
C                G                 C    R1
die dich su hann wollte - halt als Depp


[Solo]

C  Em7  Am  G     
F  C  G  G     
C  Em7  Am  F


[Outro]

C                G                 C    C   C      (A-3-)
die dich su hann wollte - halt als Depp            (E---)


[Solo]

e|--------------------------------------------------------------------------|
B|--9/10--------------------------------------------------------------------|
G|-10/11--9x----------------------------------------------------------------|
D|-----------12x----------------------------------------------------9/12-12-|
A|------------------12h14-12----12h14-12-12/14-12--------9/12-14p12---------|
E|----------------------------------------------------12--------------------|

e|--------------------------------------------------------------------------|
B|--------------------------------------------------------------------------|
G|-------14--------------------------14------14-----------------------------|
D|-14h16-----16p14----14----14--14h16---14h16---16p14----12------------12---|
A|-----------------17----17----------------------------------14-12-14-------|
E|--------------------------------------------------------------------------|
                                < -3- > < -3- >

e|--------------------------------------------------------------------------|
B|--------------------------------------------------------------------------|
G|-------14--14b16-14------------------------------------------------14-----|
D|-14h16----------------14h16-16---preb14r12-9-12-----------12-14h16--------|
A|------------------------------------------------12h14---------------------|
E|--------------------------------------------------------------------------|
                                                                  die dich

e|--------------------------------------------------------------------------|
B|--------------------------------------------------------------------------|
G|--------------------------------------------------------------------------|
D|----------------------------------------------12-------12-----------------|
A|----------------------------------------12h14----14p12--------------------|
E|--------------------------------------------------------------------------|
            su hann wollte - halt als Depp


************************************

| x               Dead note
| h               Hammer-on
| p               Pull-off
| r               Release
| b               Bend
| /               Slide up
| < -3- >         Triplet

************************************

More chords by BAP: