BAP - Eins Für Carmen Un En Insel Guitar Chords

Chords: Em7, D, Fmaj7, Am, Dm, F, G
[Intro]

    Em7               D           
e|-------------0------------------2------|
B|-------------3------------------3------| (Same Riff in Verses)
G|-------------0------------0h2---2------|
D|-------------2-------0--0-------0------|
A|-------0h2---2------------------0------|  2x
E|--0--0---------------------------------|


[Riff 1] (Mandoline)

    Em7                              D        
e|-------------------------------------------------------17-17-15-14----15--|
B|--12-12--12-12-12-12--12-13-12-------------------------------------17-----|
G|-------------------------------14-14--------------------------------------|
D|-------------------------------------12-12--12-12-12----------------------|
A|--------------------------------------------------------------------------|
E|--------------------------------------------------------------------------|

    Em7                              D
e|--------------------------------------------------------------------------|
B|--12-12--12-12-12-12--12-13-12--------------------------------------------|
G|-------------------------------14-14-----------------------------11-------|
D|-------------------------------------12-12--12-12-12---12--12-14----12-14-|
A|--------------------------------------------------------------------------|
E|--------------------------------------------------------------------------|


[Verse 1]

Em7                              D
 Nur paar Zykade - ich klimper dozo en Melodie
Em7                                            D
 Mensch, jeht et mer joot he, su joot wie noch nie
Em7                                         D
 T'ess alles phantastisch, doch jottseidank nit nur Phantasie
              Fmaj7                         Am
 Ming Fata Morgana hätt ne Namen, die heißt Carmen
                      Dm                               F
 Paradiesisch, wie se dolitt,  jreifbar noh bei mir em Sand litt
         G                   R1 Em7 D Em7 D
 Wie dat ussieht, einfach su


[Verse 2]

Em7                                    D
 Als hätt'se kein Zick läuf övver ming Fööß, mem Affenzahn
Em7                                  D
 en Ameis, nä zwei, jetz sinn et ald drei
Em7                                        D
 Leev Ameise, hührt ens, dat weet mer doch wohl kein Karawan
               Fmaj7                            Am
 Un minge Hung jähnt, krüff dämm Schatte noh un pennt
                       Dm                              F
 wigger wie der janzen Daach, weil'e streune will diss Naach
           G                R1 Em7 D Em7 D
 t'jeht op Jaach diss Naach


[Verse 3]

Em7                                    D
 Doch alles ess Carmen un hällt mich total en ihrem Bann
Em7                                     D
 Ich will se wie nur jet, ich bedden se ahn
Em7                                      D
 Nä, nit nur dä Hung freut sich, wenn et düster weet und dann
           Fmaj7
 die janze Insel unser Zimmer ess
    Am
 dä Strand dat Bett em Himmel ess
    Dm                           F            G            R1 Em7 D Em7 D
 wo Carmen dann dä Engel ess, dä sich un mich erlös Jawoll


[Outro]

R1 Em7 D Em7 D


************************************

| h  Hammer-on
| R1 Riff1

************************************

More chords by BAP: