Banks - Warm Water Guitar Chords

Banks

alternative r&b, dance pop, electropop, indie poptimism

Song versions: 1 2 3
Chords: Em7, D, Am7, Bm7, Bm7/F#, C#m7+5, Cmaj7, Em7/B, D/A, A7
Set 1:
 |   Em7   |    D    |   Am7   |   Bm7   |  Bm7/F# |  C#m7+5 |  Cmaj7  |  Em7/B  |   D/A   |    A7   |
e|----3----|----2----|----3----|----5----|----5----|---------|---------|----3----|----2----|----0----|
B|----3----|----3----|----1----|----3----|----3----|----5----|----5----|----3----|----3----|----2----|
G|----4----|----2----|----0----|----2----|----2----|----4----|----4----|----4----|----2----|----0----|
D|----2----|----0----|----2----|----x----|----4----|----7----|----5----|----2----|----0----|----2----|
A|---------|---------|----0----|----2----|---------|----4----|----3----|----2----|----0----|----0----|
E|---------|---------|---------|---------|---------|---------|---------|---------|---------|---------|

Set 2 (capo on the 5th fret):
 |   Em7   |    D    |   Am7   |   Bm7*  |  Bm7/F# |  C#m7+5 |  Cmaj7  |  Em7/B  |   D/A   |    A7   |
e|---------|---------|----0----|----0----|----0----|---------|---------|---------|---------|---------|
B|----3----|----2----|----3----|----0----|----0----|----0----|----0----|----3----|----2----|----0----|
G|----4----|----2----|----0----|----2----|----2----|----4----|----4----|----4----|----2----|----1----|
D|----4----|----2----|----0----|----2----|----2----|----4----|----4----|----4----|----2----|----0----|
A|----2----|----0----|----2----|----x----|----4----|----7----|----5----|----2----|----0----|----2----|
E|---------|---------|----0----|----2----|---------|----4----|----3----|----2----|----0----|----0----|

[Verse 1]
Em7 D   Am7     Bm7  Bm7/F#            Em7  D   Am7      Bm7        Bm7/F#
Looking you over and you don't know my name yet
Em7 D      Am7               Bm7           Bm7/F#         Em7 D  Am7      Bm7       Bm7/F#
But by the time you looked away, already knew I couldn't fake it
Em7 D     Am7         Bm7 Bm7/F#         Em7  D   Am7      Bm7        Bm7/F#
I got this need for you, forming in my beating heart
Em7 D     Am7              Bm7            Bm7/F#       Em7  D  Am7       Bm7        Bm7/F#
I knew the meaning right away, we only yesterday were worlds apart

[Hook 1]
C#m7+5 Cmaj7  Em7/B    D/A
    I think I may love you
C#m7+5 Cmaj7    Em7     D
    If you give me some time
C#m7+5 Cmaj7     Em7     A7                            A7
    Maybe you'll love me too

[Verse 2]
Em7 D     Am7           Bm7             Bm7/F#        Em7  D     Am7      Bm7       Bm7/F#
I got this thing for you If you come closer I can whisper in your ear
Em7 D     Am7            Bm7               Bm7/F#            Em7      D     Am7    Bm7    Bm7/F#
And if you wanna walk away I'll tell you all the things I know you'd wanna hear

[Hook 2]
Em7  D    Am7     Bm7    Bm7/F#
I'll come closer to you if you-
Em7  D    Am7   Bm7    Bm7/F#
-you come over I know we'll-
Em7    D  Am7      Bm7          Bm7/F#
-we'll go further further with you
    Em7 D  Am7       Bm7   Bm7/F#
With you I'm in warm water swimming down

[Bridge]
N.C.
...

[Hook 1]
C#m7+5 Cmaj7  Em7/B    D/A
    I think I may love you
C#m7+5 Cmaj7    Em7     D
    If you give me some time
C#m7+5 Cmaj7     Em7     A7                            A7
    Maybe you'll love me too

[Hook 2]
Em7  D    Am7     Bm7    Bm7/F#
I'll come closer to you if you-
Em7  D    Am7   Bm7    Bm7/F#
-you come over I know we'll-
Em7    D  Am7      Bm7          Bm7/F#
-we'll go further further with you
    Em7 D  Am7       Bm7   Bm7/F#
With you I'm in warm water swimming down

[Hook 2]
Em7  D    Am7     Bm7    Bm7/F#
I'll come closer to you if you-
Em7  D    Am7   Bm7    Bm7/F#
-you come over I know we'll-
Em7    D  Am7      Bm7          Bm7/F#
-we'll go further further with you
    Em7 D  Am7       Bm7   Bm7/F#
With you I'm in warm water swimming down

More chords by Banks: