Band of Horses - The Funeral Guitar Chords

Band of Horses

folk-pop, indie folk, indie pop, indie rock

Chords: Ab, Eb, Bb, Cm
-------------------------------------------------------------------------------
                             The Funeral - Band of Horses
-------------------------------------------------------------------------------
As heard in How I Met Your Mother
The other tab sounded correct but it's not what they play! 
I researched some live videos and came up with this! Enjoy!
When it says intro you pick the notes as shown below. 
If it says verse then you play the bar chords.
Tabbed by: THL22

Follow me on instagram and 500px 
https://www.instagram.com/weareallbuddhas/ 
https://500px.com/weareallbuddhas



Tuning: standard

Intro 2x
    Ab             Eb           Bb        Cm
e|---------------------------------------------------------------------------|
B|--------16------------11----------6----------8-----------------------------|
G|-----17----17------12----12-----7---7------8---8---------------------------|
D|--18------------13------------8---------10---------------------------------|
A|---------------------------------------------------------------------------|
E|---------------------------------------------------------------------------|

   Ab  Eb  Bb  Cm
e|-4---6---6---3--|
B|-4---8---6---4--|
G|-5---8---7---5--|
D|-6---8---8---5--|
A|-6---6---8---3--|
E|-4---6---6---3--|

[verse]
Ab             Eb  Bb          Cm
I'm coming up only to hold you under
Ab             Eb  Bb          Cm
And coming up only to show you wrong
Ab       Eb     Bb          Cm
And to know you is hard we wonder
Ab   Eb      Bb          Cm
to know you all wrong we were

Ab  Eb    Bb   Cm
Ooh oooh ooooh ooh
Ab  Eb    Bb   Cm
Ooh oooh ooooh ooh

[verse]
Ab          Eb      Bb        Cm
Really too late to call so be wait for
Ab          Eb      Bb        Cm
Morning to wake you is all we got
Ab    Eb      Bb        Cm
To know me as hardly golden
Ab       Eb    Bb        Cm
is to know me all wrong (they would)

[Chorus]
Bb                         Eb                   Ab              Ab
And every occasion I'll be ready for the        funeral
And every occasion once    more it's called the funeral
Every occasion oh I'm      ready for the        funeral
And every occasion oh one  billion day          funeral

[Intro]
Ab             Eb  Bb          Cm
I'm coming up only to shove you down for
Ab             Eb  Bb          Cm
And coming up only to show you wrong

[Verse]
Ab       Eb           Bb          Cm
To the outside of the dead leaves they're on the lawn
Ab        Eb        Bb          Cm
(be)For they died, had trees to hang their own
Ab  Eb   Bb   Cm
Ooh ooh ooh
Ab  Eb  Bb  Cm
Ooh ooh ooh ooh

[Chorus]
Bb                         Eb                   Ab              Ab
And every occasion I'll be ready for the        funeral
And every occasion once    more it's called the funeral
Every occasion oh I'm      ready for the        funeral
And every occasion oh one  billion day          funeral




************************************

| /   slide up
| \   slide down
| h   hammer-on
| p   pull-off
| ~   vibrato
| +   harmonic
| x   Mute note
| b   Bend
| pb  Pre-bend
| br  Bend release
| pbr Pre-bend release
| brb Bend release bend

************************************

More chords by Band of Horses: