Band of Horses - The Funeral Guitar Chords

Band of Horses

folk-pop, indie folk, indie pop, indie rock

Chords: F, C, G, Am, Ab, Eb, Bb, Cm, A5/E
Band of Horses - The Funeral

*Capo 3

   {CHORDS]
F  (003211)
C  (x32010)
G  (320003)
Am (x02210)

{ = intro tab start
} = intro tab end

[Intro] (2x)
  Ab            Eb           Bb         Cm       Cm
e----------------------------------------------------------|
B-------16---\--------11---\------6--\-------8--------8----|
G----17----17\-----12----12\----7---7\-----8---8----8---8--|
D-18---------\--13---------\--8------\--10-------10--------|
A----------------------------------------------------------|
E----------------------------------------------------------|

[ALT. Intro] (2x)
   F       C       G       A5/E 
e|-------1----------------------------------|
B|-----1---------1-----------------------0--|
G|---2---------0---------0-----2-------2----|
D|-3---------2---------0-----2---2---2------|
A|---------3---------2-----0-------0--------|
E|-----------------3------------------------|

The intro is played over the first verse

F               C
{ I'm coming up only
     G         Am 
to hold you under 
F                C
and coming up only
     G         Am 
to show you're wrong 
F             C
and to know you
     G         Am 
is hard we wonder 
F                 C
to know you all wrong 
   G     Am
we warn 

F       C
Ooooohh oooohh 
    G        Am      
Ooooohhhoohhhhooh  x2 }

[Verse]
F         C
Really to late to 
G          Am        F
call so we wait for 
           C
morning to wake you
  G       Am    F
is all we got 
   C          G      Am      F
to know me as hardly golden
      C          G
is to know me all wrong 
Am
they warn 

[Chorus]
G G G G G G G G 
at every occasion 
G G G  C                  F   G
ill be ready for the funeral 
                            C
at every occasion once more 
               F       G
its called the funeral 

at every occasion 
       C             F        G
oh I'm ready for the funeral 

at every occasion 
       C           F
oh one billion day funeral 

  F             C
{ I'm coming up only 
  G                Am
to show you're down for 
F            C
and coming up only 
   G        Am
to show you wrong  }

[Verse]
F      C           G
to the outside the dead leave 
Am               F
lay on the lawn
    C          G
for they don't have trees
   Am
to hang upon

F            C
Oooohhhohhhhhh 
 G          Am
Oooooohooooooh x2

[Chorus]
G G G G G G G G
And every occasion 
G G G  C                  F   G
ill be ready for the funeral 
                            C
at every occasion once more 
               F        G
its called the funeral 
   
at every occasion 
       C             F        G
oh I'm ready for the funeral 

At every occasion 
       C           F
oh one billion day funeral 

[Outro]

 -play intro 2x end on  Am


This is my first tab, I borrowed parts from some other tabs and filled in 
the rest in a format that worked for me. Let me know what you think, 
hope it helps some of you out there.

More chords by Band of Horses: