Band of Horses - Part One Guitar Chords

Band of Horses

folk-pop, indie folk, indie pop, indie rock

Chords: C, C/D, E, F
Band of Horses
Part One
Tabbed by: Mustafa Sayed

       C                          C/D
To the bottom the earth i have to fall
C              E
but you really caught me
             F
you really caught me, dear
                        C         C/D
at the bottom where i'd fall.

    C                           C/D
and slowly dear asked would you dance with me
              E
here's the shades down
    F                C          C/D
the lights off
C            E
and i didn't know you
               F
and everything i do
     C                          C/D
done badly
                  E
now i'll love you always
     F
even when i say
    C                           C/D
you distract me.

    C                         C/D
and sit out tonight in some strange place
              E
if we have no friends here
             F         C         C/D
well i had a few to begin with
   C                       C/D
to wake next to you in the morning
                 E
and good morning to you.
       F
how do you do?
     C                   C/D
hey, good morning to you!
            E
more covers for you.
      F                            C
sleep soundly dear cause i have to go.
                    E
and i'll love you always.
              F
when we leave this place

  and drive back to carolina
e|--------------------------|
B|------------0-------1-----|
G|--------------0-------2---|
D|--------------------------|
A|----------2-------3-------|
E|--------------------------|

  and down to savannah and stay
e|-------------------------0-|
B|------0-------1----------1-|
G|--------0-------2--------0-|
D|-------------------------2-|
A|----2-------3------------3-|
E|---------------------------|

  C/D
e|-0------------------------|
B|-3------------------------|
G|-0------------------------|
D|-2------------------------|
A|-3------------------------|
E|--------------------------|

More chords by Band of Horses: