Bamboo - Probinsyana Guitar Chords

Bamboo

classic opm, opm, pinoy indie, pop rock

Song versions: 1 2
Chords: G7, C7, D, D/A, A
=> Another song which needs some fresh chords. Para sa mga gsto i-rhythm to, here are the chords. May idea
ako sa instrumental lead part but I can't say it's 100% accurate. Di ko na tiningnan ung ibang tabs, see if mas
accurate sila dun. I put some good enough tabs for completeness of playing but this is more for the chords. :) 
Rock on Bamboo! Great song!

=+=+=+=+=+=+=+=+=+=+=+=+=+=+=+=+=+=+=+=+=+=+=+=+=+=+=+=+=+=+=+=+=+=+=
|| Title: Probinsyana
|| Artist: Bamboo
|| Album: We Stand Alone Together [2007]
|| Song length: 3:25
=+=+=+=+=+=+=+=+=+=+=+=+=+=+=+=+=+=+=+=+=+=+=+=+=+=+=+=+=+=+=+=+=+=+=

Standard tuning

INTRO:

(Very first part)
e|---------------------------------------|
B|---------------------------------------|
G|---------------------------------------|
D|-------------3--3—------------3--3-----|
A|--5-5-5-5-5-5----3-5-5-5-5-5-5----3----|
E|---------------------------------------|  (2x)

(Chords part: Use power chords para mas madali)
G--F-G--F-G--F-C--Bb----  (4x)
D---C-D(2x) D/A-----D------

Power chords  G: 355xxx   F: 133xxx   C: x355xx   Bb: x133xx
              D: x577xx   D/A: 5577xx

VERSE 1:
G7                    C7
  Ang probinsyana ay di basta-basta
G7                     C7
  Mahirap bolahin, kailangan haranahin
G7                      C7
  Ang kanyang lakad, mabibighani ka
G7            C7
  Di biro, babaeng probinsyana


CHORUS:
D           
  Mahirap amuhin ang probinsyana
D/A
  Pag napa-ibig, wala kang duda


VERSE 2:

G7                   C7
  Pag sa umaga, pisngi namumutla
G7               C7
  Pag nakasaya maaakit ka
G7                      C7
  Ang kanyang lakad, mabibighani ka
G7            C7
  Di biro, babaeng probinsyana


(repeat CHORUS)


Interlude (sounds like but not exactly it!):
e|----------------------------------|
B|-------------6--------------------|
G|---3h5-5/7-7---7-3h5-3-5\3--------|
D|--5---------------—--------5------|
A|----------------------------------|
E|----------------------------------|   (2x)

e|----------------------------------|
B|------------8---------------------|
G|---5h7-7b-9---7-5h7-5-7\5---------|
D|--7---------------—--------7------|
A|----------------------------------|
E|----------------------------------|

                     A
e|------------------------------------|
B|------------0-----------------------|
G|--------0-------0-------------------|
D|--0h2h3---0h2h3----777777-----------|
A|-------------------777777-----------|
E|-------------------555555-----------|

(repeat chords part of INTRO)


VERSE 3: (same verse chords)

Aking diwata, saan ka pumunta
Lumuwas ng Maynila dala ng pangarap niya
Ang kanyang lakad mabibighani ka
Nasaan na aking Maria Clara!


(repeat CHORUS)

(repeat chords part of INTRO until end)

Probinsyana! Probinsyana!


***CHORDS***
G7: 353433
C7: x3231x  or  x35353
D/A: 557775


++Daryl Kayanan++
++2.6.2015++

More chords by Bamboo: