Bamboo - Hallelujah Guitar Chords

Bamboo

classic opm, opm, pinoy indie, pop rock

Chords: Am, F, C, G, Dm, Em
Intro: Am - F - C - G (Guit Riff 1) (4x)
       Am - F - C - G (Guit Riff 2) (2x)

Verse 1 : (Guit flick wah, chords)
Am             F       C        G
      Anong balita sa radyo at tv?
Am             F     C         G
      Ganun parin kumakapa sa dilim
Am             F                C            G
      Minsan naisip ko nang umalis nalang dito
Am               F              C        G
      Kalimutan ang lahat, lumipad, lumayo, oh

Interlude: Am - F - C - G (Guit Riff 1) (2x)

Verse 2: (Guit Riff 2 on palm mute throughout verse) 
Am                   F     C                    G
       Bato bato sa langit, ang tamaan huwag magalit
Am                 F          C          G
       Alam naman natin kung sino ang tuso
Am                  F        C       G
       Sa bawat sumpang umiiyak, singil ko ay piso
Am                 F           C    G          F
       Sa bawat lumuluhang dukha, alay ko'y dugo

Pre-Chorus :
F                       C        G
     May kasama ka kapatid, kaibigan
     Dm
Hanggat ako'y humihinga
C
May pag-asa pa..

Chorus :
Am                     F
     OOOOHHHHHH!!!!!OOOOHHHHHH!!!!!
    C   G        F
Halleluuu, hallelujaaah
Am                                     
Sinong sawa, sinong galit
F
    Sumigaw ngayong gabi
    C  G         F
Halleluuu, hallelujaah
     Em    G
Haleeee... eh eh eh.

Transition: Am - F - C - G 2x (Guit Riff 3 on 2nd run)

Rap : (Do Chord pattern: Am - F - C - G -)
Blinded by the light I could barely see the faces infront of me
Asking me how do we begin we'll started from within
I'm ashamed of what I become in the mirror
The face of my one true enemy
Hallelujah, it's a new day let's take control
If I have to take this message door to door
save myself and every soul
With permission I'll make it my personal mission
                                    Am - F - 
Save me from the fire, from the fire,
C                  G 
Save me from the fire!!!

Verse 3: 
Am              F      C           G
     Ngayong gabi ako ang sundalo mo
Am            F           C             G            Am
     Habang ika'y tulog ako'y gising nakabantay sa iyo,
  F        C          G         Am     F
Oooh... Kasi mahal kita, tignan mo, ooooh,
      C        G            F
Pag-ibig ko sayo lamang...

|Pre-Chorus: |

|Chorus: |

|Ad Lib: | Am - F - C - G - (2x)

Outtro: 
Am                             F 
     Sinong sawa, sinong galit, sumigaw ngayong gabi
   C  G        F
Haleluu, hallelujaah (2x)
Am      F       C  G        F
     Ooooh. Halleluu, hallelujah 
(Sinong galit (sung repeatedly on background))
Am      F       C    G   F (end)
     Ooooh. Halleluuuu

Guit Riff 1
e|-------3---|
B|-----1-----|
G|--2--------|
D|-----------|
A|-----------|
E|-----------|

Guit Riff 2
e|-----------------------------------------------------------|
B|-----------------------------------------------------------|
G|-----------------------------------------------------------|
D|--------------3--3--3-3-3-5-5-2-2--------------------------|
A|------------3---------------------3--3-3--5--5--2--2-------|
E|--5--5--5-5-------------------------------------------3-3--|

Guit Riff 3
e|-----------------------------------------------------------|
B|---------------5--h6--p5--5--h6--p5--3---------------------|
G|--5------------5----------5----------4---------------------|
D|--5-h7--p5--h7---------------------------------------------|
A|-----------------------------------------------------------|
E|-----------------------------------------------------------|

More chords by Bamboo: