Bad Cash Quartet - Twenty Two Guitar Chords

Bad Cash Quartet

gothenburg indie, swedish alternative rock

Chords: Dm, Am, Bb, F, C, G
Capo på 1:a bandet

 Gitarrplock under introt och verserna:                                                 
e|----1-----1-----1---1-----1-----1-|----0-----0-----0---0-----0-----0-|
B|------3-----3---------3-----3-----|------1-----1---------1-----1-----|
G|----------------------------------|----------------------------------|
D|--0-----0-----0---0-----0-----0---|----------------------------------|
A|----------------------------------|--0-----0-----0---0-----0-----0---|
E|----------------------------------|----------------------------------|
                                                                   
e|----1-----1-----1---1-----1-----1-|----0-----0-----0---0-----0-----0-|
B|------3-----3---------3-----3-----|------1-----1---------1-----1-----|
G|----------------------------------|----------------------------------|
D|--0-----0-----0---0-----0-----0---|----------------------------------|
A|----------------------------------|--0-----0-----0---0-----0-----0---|
E|----------------------------------|----------------------------------|
                                                                      
e|----1-----1-----1---1-----1-----1-|----1-----1-----1---1-----1-----1-|
B|------3-----3---------3-----3-----|------1-----1---------1-----1-----|
G|----------------------------------|----------------------------------|
D|----------------------------------|----------------------------------|
A|--1-----1-----1---1-----1-----1---|----------------------------------|
E|----------------------------------|--1-----1-----1---1-----1-----1---|
                                                                      
e|----0-----0-----0---0-----0-----0-|----0-----0-----0---0-----0-----0-|
B|------1-----1---------1-----1-----|------1-----1---------1-----1-----|
G|----------------------------------|----------------------------------|
D|----------------------------------|----------------------------------|
A|--3-----3-----3---3-----3-----3---|--3-----3-----3---3-----3-----3---|
E|----------------------------------|----------------------------------|

[Verse]

Dm     Am
Twenty two
    Dm          Am
and through with you
    Bb     F
i'm twenty two
    C
and singing to you

        Dm      Am
There's nothing true
     Dm       Am
when I'm with you
   Bb       F
so what will make
  C
tomorrow alright


[Chorus]

G      Dm
Lift me up
    G      Dm      F
and let me drift away
      G
don't follow

      C
Cause I don't
G           F        G
need nobody else but me
    C       G         Am     F G
and I don't need your sympathy

C


[Verse]

Dm     Am
Twenty two
    Dm          Am
and through with you
    Bb     F
i'm twenty two
    C
and singing to you


[Chorus]

G      Dm
Lift me up
    G      Dm
and let me drift away
G      Dm   F
Lift me up
      G
don't follow


      C
Cause I don't
G           F        G
need nobody else but me
   C
no I don't
G           F        G
need nobody else but me
        Am G F
to destroy myself
             G          
no I do that fine on my own

C G F G


[Outro]

      C
No I don't
G           F        G
need nobody else but me
        Am G F
to destroy myself
             G          
no I do that fine on my own

Am C/Em F G

C

More chords by Bad Cash Quartet: