Bad Cash Quartet - Too Bored To Die Guitar Chords

Bad Cash Quartet

gothenburg indie, swedish alternative rock

Song versions: 1 2
Chords: B, E, F#
    B   B   B            E
e|----------------------------------------------|
B|--12-12---12---11--12----12--11---------------|
G|--11-11----11----11-----13--13----------------|
D|--13-13-----13---------14--14-----------------|
A|--14-14---------------------------------------|
E|----------------------------------------------|

    B   B      B             E
e|----------------------------------------------|
B|--12-12---12---11--12----12---14-14-14-12-----|
G|--11-11----11----11-----13----13-13-13-13-----|
D|--13-13-----13---------14--14-----------------|
A|--14-14---------------------------------------|
E|----------------------------------------------|

    B   B   B            E
e|-------------------------12-------------------|
B|--12-12---12---11--12----12-------------------|
G|--11-11----11----11-----13--------------------|
D|--13-13-----13---------14--14--14-14-11--11---|
A|--14-14---------------------------------14-14-|
E|----------------------------------------------|

    B   B   B            E
e|------------------------------12-11----11-----|
B|--12-12---12---11--12----12---------14--------|
G|--11-11----11----11-----13--------------------|
D|--13-13-----13---------14--14-----------------|
A|--14-14---------------------------------------|
E|----------------------------------------------|

[Verse]

B                    E 
I take my hands from all the things now.
B               E
I just let them move beside me.
B                E 
I don´t let them bother me no more.

Another day comes scarily close to 
nearly be the day thet
Nearly be the day that leads the way...


[Bridge]

F#
Something got to start me up


[Chorus]

B                          E
So come on come on please shake me
B                          E
Something´s got to make me move.
B                      E
Come on come on please shake me
B                          E
Something´s got to make me move.

More chords by Bad Cash Quartet: