Bad Cash Quartet - Searching Is Killing Me Guitar Chords

Bad Cash Quartet

gothenburg indie, swedish alternative rock

Song versions: 1 2
Chords: Bb, F, Gm, Eb, C#, G#, Ebm
[Intro]

e|-------------------------------------------8-----10--------|
B|--------6-------------8-------------10--------------------|
G|----7-----7-------7-----7-------7------7-----7-------------|
D|------8-----8-------8-----8-------8------8-----8-----------|
A|-----------------------------------------------------------|
E|--6-------------6-------------6----------------------------|


[Verse]

Bb
Back to my schoolyard and
F                  Gm
back to where we began
  Eb                   F
I know you thought you won
    Eb              Gm
but we knew we were right and
F        Bb
you were wrong

  Bb              Bb
e|-----------------------------------|
B|-----------------------------------|
G|---8-7-8-7-8-7------5-3-5-3-5-3----|  x2
D|-----------------------------------|
A|-----------------------------------|
E|-----------------------------------|

Dreaming of something
far away from home
'cause you have seen the world
from postcards on your wall
(in your room)
a feeling never leaves me
yeah I've been watching you
so if you ask me if you care
no I won't lay on your graveyard


[Chorus]

C#
Sometimes shutting you out oh
G#
sometimes I'm giving you all, no
Ebm
I don't know where to go
       C#          G#
'cause everyone's alone x2

C#  Ebm  Ebm  G#  C#


[Verse]

always something missing
and searching is killing me
I'm always chasing shadows
so don't you ever count
on me

there are always something missing
and searching is killing me
I'm always chasing shadows
so don't you ever count
on me


[Chorus]

C#
Sometimes shutting you out oh
G#
sometimes I'm giving you all, no
Ebm
I don't know where to go
       C#          G#
'cause everyone's alone x2

C#  Ebm  Ebm  G#  C#

More chords by Bad Cash Quartet: