Bad Cash Quartet - Outcast Guitar Chords

Bad Cash Quartet

gothenburg indie, swedish alternative rock

Song versions: 1 2
Chords: C, F, Dm, G, Am
[Intro]

C F Dm x2
                                            
e--------0-------0--|--------0--------0--|---------------------|
H-----1----1--3-----|-----1-----1--3-----|--------10-----------|
G-------------------|--------------------|-----9------9--7--9--|
D-------------------|--------------------|--7-----------(7)----|
A--3----------------|--3-----------------|---------------------|
E-------------------|--------------------|---------------------|
        

e--------3--0-----0-|
H-----3--------3----|
G-------------------|
D--3----------------|
A-------------------|
E-(1)---------------|

C                          F  Dm   C                      F      Dm
I can take it any time but now. So I keep going, going on forever.
      C                           F               Dm
And I look down at everyone cause I can't stand it any more.
      C                                       F              Dm    C...
And I think it's good to be the first one who knows I am the only one

F Dm C F Dm


[Verse]

C                          F  Dm   C                      F      Dm
I can take it any time but now. So I keep going, going on forever.


[Pre-Chorus]

F             G                  C       G Am
And there's a place I know where you and I always go.
F             G          C     G         Am  F            G
And there are people who still think I'm good and that is good...


[Chorus]

             C              F      Dm
Cause I'm an outcast. I'm a lost cause...   x2


[Verse]

              C            F  Dm             C           F   Dm         
"It's not the first time I lose and it's the last time I lose"
I can take it any time but now. So I keep going, going on forever.
And I look down at everyone cause I can't stand it any more.
And I think it's good to be the first one who knows I am the only one


[Pre-Chorus]

F             G                  C       G Am
And there's a place I know where you and I always go.
F             G          C     G         Am  F            G
And there are people who still think I'm good and that is good...


[Chorus]

             C              F       Dm
Cause I'm an outcast. I'm a lost cause...  x3
       C      F Dm C  
I'm an ouuuuuuuuuutcast...

More chords by Bad Cash Quartet: