Bad Cash Quartet - Monday Morning Guitar Chords

Bad Cash Quartet

gothenburg indie, swedish alternative rock

Song versions: 1 2
Chords: C, Am, G, F
[Intro]

   C                                         Am                G
e|---------0-------|-----------0-----------|---------0-------|---------3-------|
B|-----1-----1---1-|-------1-----1---1-----|-----1-----1---1-|-----0-----0---0-|
G|---0---0-----0---|-----0---0-----0-------|---2---2-----2---|---0---0-----0---|
D|-----------------|-----------------------|-----------------|-----------------|
A|-3---------------|--3--------------------|-0---------------|-----------------|
E|-----------------|-----------------------|-----------------|-3---------------|

e|-----------------|-----------------------|-----------------|-----------------|
B|-----------------|-------------------5---|-----------------|---------8-6-5---|
G|-5-------------7-|---------7-7-7-7-5---5-|-----------------|---------------7-|
D|-----------------|-----------------------|-7---------------|-5---------------|
A|-----------------|-----------------------|-----------------|-----------------|
E|-----------------|-----------------------|-----------------|-----------------|


   C                                     G                 F
e|---------0-------|-----------0-------|---------3-------|---------1-------|
B|-----1-----1---1-|-------1-----1---1-|-----0-----0---0-|-----1-----1---1-|
G|---0---0-----0---|-----0---0-----0---|---0---0-----0---|---2---2-----2---|
D|-----------------|-------------------|-----------------|-----------------|
A|-3---------------|--3----------------|-----------------|-----------------|
E|-----------------|-------------------|-3---------------|-1---------------|

e|-----------------|-------------------|-----------------|---------1-------|
B|-----------------|---------------5---|-8---------------|-----------------|
G|-5-------------7-|-----7-7-7-7-5---5-|-----------------|-----------------|
D|-----------------|-------------------|-----------------|-----------------|
A|-----------------|-------------------|-----------------|-----------------|
E|-----------------|-------------------|-----------------|-----------------|


[Verse]

     C           
     Monday morning.
        Am                   G       
     It feels like I’m going down.
     C
     Every wasted day is
     G                 F
     Going through my head      

     C
     Monday morning
          Am                 G 
     Know how it feels to be young
     C
     And challenge everyone
            G           F
     Do you know how it feels


[Chorus]

          C    G C        F     Am
         I run at nights till I drop
         I run at nights till I drop

         F          G            C
         Cause I am astray in my head
                       F
         And that’s in everything I do
         F      G          C
         I am astray in my head
                 F
         So I can’t hear a thing you,
         G                C
         hear a thing you say


[Verse] (C Am G, C G F)

     C           
     Monday morning.
        Am                   G       
     It feels like I’m going down.
     C
     Every wasted day is
     G           F
     Through my head

     C
     Early evenings
        Am                  G 
     These are the times I love
     C
     But every now and then
         Am              G 
     it feels like I am dead


[Refrain] (C G C F Am)

          C    G C        F     Am
         I run at nights till I drop
         I run at nights till I drop

         F          G            C
         Cause I am astray in my head
                       F
         And that’s in everything I do
         F      G          C
         I am astray in my head
                 F
         So I can’t hear a thing you,
         G                C
         hear a thing you say

More chords by Bad Cash Quartet: