Babyshambles - Un Stookie Titled Guitar Chords

Babyshambles

britpop, garage rock, indie rock, modern rock

Song versions: 1 2
Chords: D, Bm, G, A, E, Em, F#m, C
Tabs are from previous version but chords are my own i am 100% sure it is how it supposed to be. One of my 
favorite songs from Babyshambles, what else to say.

[Intro]

e|-----------------------------------------------------------------------|
B|-----------------------------------------------------------------------|
G|--7-7-7-7-6-7-11-11-11-11-7-7-16-16-16-16-11-11-11-14-14-14-11-11-11---|  X3
D|--0-0-0-0-0-0-0-0-0-0-0-0-0-0-0-0-0-0-0-0-0-0-0-0-0-0-0-0-0-0-0-0-0----|
A|-----------------------------------------------------------------------|
E|-----------------------------------------------------------------------|

e|-------------------------------------------------------------------------------------------|
B|-------------------------------------------------------------------------------------------|
G|--7-7-7-7-6-7-11-11-11-11-7-7-16-16-16-16-11-11-11-14-14-14-11-11-11-12-12-12-12-11-11-7---|
D|--0-0-0-0-0-0-0-0-0-0-0-0-0-0-0-0-0-0-0-0-0-0-0-0-0-0-0-0-0-0-0-0-0-0-0-0-0-0-0-0-0-0-0-0--|
A|-------------------------------------------------------------------------------------------|
E|-------------------------------------------------------------------------------------------|


[Verse 1]

D              Bm                     D
You smoke your cigarettes down to the bone
    Bm        D      
And since you vowed to back it and you're too proud to sack it
    G             D
You have to carry on your own
    Bm                            D
You think you had it under control
G         D
Best foot forward and don't look back no more
         G                                 D
It could break your heart and torment your soul


[Chorus 1]

D                  A
Well, they sold my name after they stole my shame
                 E
Sold my name, ah yeah
D          A
Tumbled my game, tumbled their game
      D            A       E
Got a tablet sized brains, yeah


[Instrumental]

e|-----------------------------------------------------------------------|
B|-----------------------------------------------------------------------|
G|--7-7-7-7-6-7-11-11-11-11-7-7-16-16-16-16-11-11-11-14-14-14-11-11-11---|  X3
D|--0-0-0-0-0-0-0-0-0-0-0-0-0-0-0-0-0-0-0-0-0-0-0-0-0-0-0-0-0-0-0-0-0----|
A|-----------------------------------------------------------------------|
E|-----------------------------------------------------------------------|

e|-------------------------------------------------------------------------------------------|
B|-------------------------------------------------------------------------------------------|
G|--7-7-7-7-6-7-11-11-11-11-7-7-16-16-16-16-11-11-11-14-14-14-11-11-11-12-12-12-12-11-11-7---|
D|--0-0-0-0-0-0-0-0-0-0-0-0-0-0-0-0-0-0-0-0-0-0-0-0-0-0-0-0-0-0-0-0-0-0-0-0-0-0-0-0-0-0-0-0--|
A|-------------------------------------------------------------------------------------------|
E|-------------------------------------------------------------------------------------------|


[Verse 2]

D              Bm                     D
You smoke your cigarettes down to the bone

And it's best not to mention you're craving for attention
     G                  D
Your love for fame like blood from a stone
    Bm             D
Too busy to notice that you've thrown
    G       D
You turn to dust as there's no one left to trust
G                              A
Last chance and your mind will go


[Chorus 2]

A
Suppose my name, suppose it came
                        E
And they sold my shame, yeah
A                           D             A
And suppose it came out and tumbled their game
                     E
Tablet sized brains, yeah


[Verse 3]

                       Bm         G   Em   
Or is it really such a sin though?
F#m         Bm        G    Em   F#m  
Toll for my sin
F#m           Bm      G    Em   F#m  
Is it such a sin though?

D           C
One hand is sailing
            Bm
One hand is sailing
D           C
One hand is sailing
D                  A
One hand is sailing


[Ending]

e|-----------------------------------------------------------------------|
B|-----------------------------------------------------------------------|
G|--7-7-7-7-6-7-11-11-11-11-7-7-16-16-16-16-11-11-11-14-14-14-11-11-11---|  X3
D|--0-0-0-0-0-0-0-0-0-0-0-0-0-0-0-0-0-0-0-0-0-0-0-0-0-0-0-0-0-0-0-0-0----|
A|-----------------------------------------------------------------------|
E|-----------------------------------------------------------------------|

e|-------------------------------------------------------------------------------------------|
B|-------------------------------------------------------------------------------------------|
G|--7-7-7-7-6-7-11-11-11-11-7-7-16-16-16-16-11-11-11-14-14-14-11-11-11-12-12-12-12-11-11-7---|
D|--0-0-0-0-0-0-0-0-0-0-0-0-0-0-0-0-0-0-0-0-0-0-0-0-0-0-0-0-0-0-0-0-0-0-0-0-0-0-0-0-0-0-0-0--|
A|-------------------------------------------------------------------------------------------|
E|-------------------------------------------------------------------------------------------|

More chords by Babyshambles: