Babyshambles - Man Who Came To Stay Guitar Chords

Babyshambles

britpop, garage rock, indie rock, modern rock

Song versions: 1 2
Chords: D/G, A, E, F#m, D, Dm, Bm, G
The man who came to stay
Babyshambles

havnt listen 2 song in ages so dont how many times to play but heres basic riff i 
copied the the restof 1 of the other tabs an chaged it a bit hope this 1 helps


e|----9-9-9-9-----7--7----------------------------------------------------------|
B|----8-8-8-8-----8--8----------------------------------------------------------|
G|----7-7-7-7-----7--7----------------------------------------------------------|
D|----0-0-0-0-----0--0----------------------------------------------------------|
A|------------------------------------------------------------------------------|
E|------------------------------------------------------------------------------|


e|-------------------------------------------------------------------------------|
B|-------------------------------------------------------------------------------|
G|-------------------------------------------------------------------------------|
D|---9-11-7-9-6-7-4-2-4---9-11-7-9-7-6-------------------------------------------|
A|---0--0-0-0-0-0-0-0-0---0--0-0-0-0-0-------------------------------------------|
E|-------------------------------------------------------------------------------|


Chords
D/G? xx0789
D/G  xx0787
A    X02220
E    022100
F#m  244222
D    XX0232
D?   xx0234
Dm   XX0231
Bm   x24432
G    320002

Verse1
A        E             F#m
There's a man who came to stay
D                   D?                    Dm
The boy he replaced, disappeared without a trace...
A                E             F#m
Stole all my songs and my style away
D                     D?
While no-one would say
            Dm
what they wanted to say
So he was king for a day...

Chorus
D        F#m          Bm    G
If you sail into the sun
D    F#m            Bm      G
Beware the eyes of green
D                F#m             Bm                  G
And if the whole room tells you 'you are the one'
D        F#m            Bm                G
Well I defy you not to believe them, my son...

Verse2
A        E             F#m
There's a man who came to stay...
D                D?          Dm
Trip off the test, now the kitchen's a mess
and the garden's undressed
A          E        F#m
Every single gig I play
D                           D?
Something's not right inside
Dm
Paranoia and pride and nowhere to hide

Chorus
D        F#m          Bm    G
If you sail into the sun, lala la lala lala
D        F#m          Bm    G
Beware the eyes of green
D                F#m             Bm                  G
And if the whole world tells you 'you are the one'
D        F#m            Bm                G
I think you're hearing those voices again my son

Chorus
D        F#m          Bm    G
If you sail into the sun
D        F#m          Bm        G
Please beware the eyes of green
D                F#m             Bm       G
And if it's all too much for you my son
D        F#m            Bm           G
I'm still here waiting though no no no no no

More chords by Babyshambles: