Avril Lavigne - When Youre Gone Guitar Chords

Avril Lavigne

canadian pop, candy pop, dance pop, pop

Song versions: 1 2 3 4 5
Chords: Em, C, D, G, D/F#, Am, G/B, Bm, B7, A/C#
WHEN YOU'RE GONE by Avril Lavigne: Tabbed by Buenofine Calse
----------------

INTRO:

         Em    C 
e|----------------------------10----------|
B|--7h8----7h8----7h8----7h8--------------|
G|------9------9------9-------------------|
D|----------------------------------------|  x3
A|----------------------------------------|
E|--0------0------0------0----------------|

       D
e|----------------------------------------|
B|-------87-------------------------------|
G|-----7----7-----------------------------|
D|--0-------------------------------------|
A|----------------------------------------|
E|----------------------------------------|


VERSE 1:

  G             D/F#       Em
I always needed time on my own
                 C                      D
I never thought I need you there when I cry
        G              D/F#             Em
And the days feel like years when I’m alone
                      C                        D             
And the bed where you lie it’s made up on your side              


PRE-CHORUS:

     Am                         G/B
When you walk away I count the steps that you take
       C                             D
Do you see how much I need you right now?


CHORUS:

            C                      D
When you're gone the pieces of my heart are missing you
            C                          D
When you're gone the face that came to know is missing too
            Am               C
When you're gone the words I need to hear
   G             D/F#        C                D
To always get me through the day and make it okay

I miss you


INSTRUMENTAL:

         Em    C 
e|----------------------------10----------|
B|--7h8----7h8----7h8----7h8--------------|
G|------9------9------9-------------------|
D|----------------------------------------|  x3
A|----------------------------------------|
E|--0------0------0------0----------------|

       D
e|----------------------------------------|
B|-------87-------------------------------|
G|-----7----7-----------------------------|
D|--0-------------------------------------|
A|----------------------------------------|
E|----------------------------------------|


VERSE 2:

     G               D/F#   Em
I've never felt this way before
                  C                 D
Everything that I do, reminds me of you
        G           D/F#                  Em
And the clothes you left that lied on the floor
                         C                               D
And they smell just like you, I love the things that you do


PRE-CHORUS:

     Am                         G/B
When you walk away I count the steps that you take
       C                             D
Do you see how much I need you right now?


CHORUS:

            C                      D
When you're gone the pieces of my heart are missing you
            C                          D
When you're gone the face that came to know is missing too
            Am               C
When you're gone the words I need to hear
   G             D/F#        C                D
To always get me through the day and make it okay

I miss you


BRIDGE:

Bm                       C                  G
  We were made for each other, out here forever
            D    B7
  I know we were yeahh!!!
    Em
  I know I ever wanted was for you to know
    C
  Everything I do I give my heart and soul
    A/C#                                            D
  I can hardly breathe I need to feel you here with me yeahh!!!


CHORUS:

            C                      D
When you're gone the pieces of my heart are missing you
            C                          D
When you're gone the face that came to know is missing too
            Am               C
When you're gone the words I need to hear
   G             D/F#        C                D
To always get me through the day and make it okay

I miss you


OUTRO:

         Em    C 
e|----------------------------10----------|
B|--7h8----7h8----7h8----7h8--------------|
G|------9------9------9-------------------|
D|----------------------------------------|  x3
A|----------------------------------------|
E|--0------0------0------0----------------|
       D
e|----------------------------------------|
B|-------87-------------------------------|
G|-----7----7-----------------------------|
D|--0-------------------------------------|
A|----------------------------------------|
E|----------------------------------------|

/buend.

More chords by Avril Lavigne: