Avril Lavigne - Nobodys Home Guitar Chords

Avril Lavigne

canadian pop, candy pop, dance pop, pop

Song versions: 1 2 3 4 5 6 7
Chords: Em, Dsus2, C, D, Cmaj7, G
Nobody's Home by Avril Lavigne
Tabs+Chords by sidguptajhs@gmail.com

Hybrid version between the a live version from https://www.youtube.com/watch?v=8MILiHWCpZ8 and Original.
Capo on 1st fret.


  (Em)  (Dsus2) (G)     (C)  (D)  (Cmaj7)
e|0     0       3       0     3    0
B|3     3       3       1     2    0
G|0     2       0       0     3    2
D|2     0       0       2     0    0
A|2     x       2       3     x    3
E|0     x       3       x     x    x



Intro Simple:
                                                                            Start strumming for start of verse
e|-----------(0)--------------(0)------------------------------------------|
B|-------0-----------------3----------------------(0)---------------1-(0)--|
G|-----4---4-------------2---2----------------0-----------------0----------|
D|---2-----------------0--------------------2---2-------------2---2--------|
A|----------------------------------------3-----------------3--------------|
E|-------------------------------------------------------------------------|



Intro Complex:
                                                                            Start strumming for start of verse
e|-----------(0)----------------(0)------------------------------------------|
B|-------0---------0---------3--------3-------------(0)---------------1-(0)--|
G|-----4---4---------4-----2---2--------2-------0---------0-------0----------|
D|---2-----------------2-0----------------0---2---2---------2---2---2--------|
A|------------------------------------------3-----------------3--------------|
E|---------------------------------------------------------------------------|





Verse:
Em            Dsus2                C               C
   I couldn't tell you why she felt that way,  She felt it everyday.
Em                 Dsus2           C                     C
   And I couldn't help her, I just watched her make the same mistakes again.
 
When Strumming C in the verse, change to Cmaj7 for the last strum.


Em
What's wrong, what's wrong now?
D
Too many, too many problems.
Cmaj7                       C 
Dont know where she belongs, where she belongs.


Chorus:

Em                  G                D 
She wants to go home, but nobody's home. Its Where she lies, broken inside.
Em                  G                D 
There's no place to go, no place to go to dry her eyes. Broken inside. 

     
The same Verse chords as before

Verse:
Open your eyes and look outside, find a reason why. 
You've been rejected, and now you can't find what you left behind. 

Be strong, be strong now. 
Too many, too many problems. 
don't know where she belongs, where she belongs. 

Chorus:
She wants to go home, but nobody's home. 
It's where she lies, broken inside. 
With no place to go, no place to go to dry her eyes. 
Broken inside. 


Em              
Her feelings she hides.
D                   
Her dreams she can't find 
Cmaj7
She's losing her mind 
C       
She's fallen behind.
Em                    
She can't find her place.
D                  
She's losing her faith
Cmaj7
She's fallen from grace.
C                                 
She's all over the place. 
C        
Yeah  oh oh

Chorus

Em          G            D
She's lost inside, lost inside...oh oh. 
Em          G            D               Em 
She's lost inside, lost inside...oh oh yeah.

More chords by Avril Lavigne: