Autobus (Perú) - El Duelo Guitar Chords

Song versions: 1 2
Chords: F#5, A5, B5, C#5, E5
Bueno este es el single de "autobus" una banda peruana buenisima

Intro:
Riff
E-------------------------------------------------------------
B-------------------------------------------------------------
G-------------------------------------------------------------
D---------6-6-4---4-6-9-6---6-4---6-4---3/4--3/4--6-----------
A--4--6-7-------7---------------7-----4-------------4-2-4--7-4
E-------------------------------------------------------------

F#5
Mis neuronas se quieren matar
A5
estan atadas a un submundo infernal
B5                                                        F#5
hoy el duelo va empezar, saca las balas solo dejate llevar

F#5
mi amor ya no me quieren dar
A5
es que acaso me he portado un poco mal
B5                                                          F#5
el tiroteo va empezar, saca las garras solo dame un poco mas

Coro:
A5                           C#5
en el aire tu te ves mucho meeejor
A5                              C#5
en el aire todo el mundo esta meeejor
E5      C#5  B5                        F#5
Ayy mi amooooor mi cabeza va a explotar

Riff
E-------------------------------------------------------------
B-------------------------------------------------------------
G-------------------------------------------------------------
D---------6-6-4---4-6-9-6---6-4---6-4---3/4--3/4--6-----------
A--4--6-7-------7---------------7-----4-------------4-2-4-----
E-------------------------------------------------------------

Rasgueo  F#5

A5                           C#5
en el aire tu te ves mucho meeejor
A5                              C#5
en el aire todo el mundo esta meeejor
E5      C#5  B5                        F#5
Ayy mi amooooor mi cabeza va a explotar

F#5
mi amor ya no me quieren dar
F#5
mi amor ya no me quieren dar
A5
es que acaso me he portado un poco
B5
ya todo vuelve a empezar, en el infierno nos volveremos a encontrar


A5                           C#5
en el aire tu te ves mucho meeejor
A5                              C#5
en el aire todo el mundo esta meeejor
E5      C#5  B5                        F#5
Ayy mi amooooor mi cabeza va a explotar
E5      C#5  B5                        F#5
Ayy mi amooooor mi cabeza va a explotar


para dudas escribir por favor a carlosn14@

More chords by Autobus (Perú):