AURORA - Murder Song 5 4 3 2 1 Guitar Chords

AURORA

norwegian pop, pop

Song versions: 1 2 3
Chords: Am, Am/G, F, G, C, Em
(This is the version of her song before her album, so there may be a few differences.)
I couldn't find the tabs/chords anywhere online, so I tried to figure them out myself. I watched and listened
to the video to try and figure it out, but I'm not sure how accurate it is, although it sounds okay! Feel
free to leave a comment or suggestion. Enjoy! :)

Standard tuning
No capo

Chords used:
e|-0----0------0----0-----------|
B|-1----1------1----0-----------|
G|-2----2------2----0-----------|
D|-2----2------2----0-----------|
A|-0----0------0----0-----------|
E|-0----3------1----3-----------|
   Am   Am/G   F    G

Picking pattern: (he uses this for the whole song but you could switch to chords after intro-2x)
  Am                                Am/G                                 
e|---------------0-------------------------------0-----------------|
B|-------1---------------1---------------1---------------1---------|
G|---2-------2-------2-------2---2---2-------2-------2-------2---2-| 
D|-----2-------2-------2-------2-------2-------2-------2-------2---|
A|-0-----------------------0---------------------------------------|
E|---------------------------------3-------------------------------|
  F                                 G
e|---------------0-------------------------------0-----------------|
B|-------1---------------1---------------0---------------0---------|
G|---2-------2-------2-------2---2---0-------0-------0-------0---0-| 
D|-----2-------2-------2-------2-------0-------0-------0-------0---|
A|-----------------------------------------------------------------|
E|-1-------------------------------3-------------------------------|


[Verse]
Am          Am/G
5, 4, 3, 2, 1,
F           G
5, 4, 3, 2, 1,
   Am        Am/G     F       G
He holds the gun against my head,
  Am       Am/G        F         G
I close my eyes, and bang, I am dead.
  Am      Am/G          F                  G 
I know he knows that he's killing me for mercy.


[Chorus]
           Am
And here I go,
            C
Oh, oh, oh, oh,
            Em
Oh, oh, oh, oh,

Oh, oh, oh, oh,
           Am
And here I go,
            C
Oh, oh, oh, oh,
            Em
Oh, oh, oh, oh,

Oh, oh, oh, oh,


[Verse]
   Am                            C                                 Am       Em
He holds my body in his arms, he didn't mean to do no harm, and he holds me tight.
       Am                              C                                      Am        Em     Am
Oh, he did it all to spare me from the awful things in life that come, and he cries and cries.
  Am      G          Am                  Em
I know he knows that he's killing me for mercy.


[Chorus]
           Am
And here I go,
            C
Oh, oh, oh, oh,
            Em
Oh, oh, oh, oh,

Oh, oh, oh, oh,
           Am
And here I go,
            C
Oh, oh, oh, oh,
            Em
Oh, oh, oh, oh,

Oh, oh, oh, oh,


[Verse]
   Am                            C                                 Am       Em
He holds my body in his arms, he didn't mean to do no harm, and he holds me tight.
       Am                              C                                      Am        Em
Oh, he did it all to spare me from the awful things in life that come, and he cries and cries.
Am          Em
5, 4, 3, 2, 1,
Am          Em
5, 4, 3, 2, 1,
Am          Em
5, 4, 3, 2, 1,

The gun is gone,and so am I, and here I go.

More chords by AURORA: