AURORA - Conqueror Guitar Chords

AURORA

norwegian pop, pop

Song versions: 1 2 3 4
Chords: C, Em, D, F, G, Dadd9, F/C, G/D, Am

For the second repetition of both the second and third chorus and also the outro
the bass has some "passing chords" wich is just a chord that's used in the
transition between the "main" chords. I'll try to show how the bassline goes
with power chords, and also how I play it for better sound acoustic.

W    = Whole note
H    = 1/2 note
H*   = 1/2 note rest
Q    = 1/4 note




Chorus 2 and 3:
This is the bassline with power chords:
   C    Em   D    Em   F    G     C         C    Em   D    Em   F    G    C
   H*   Q    H*   Q    H*   Q     W         H*   Q    H*   Q    H*   Q    W
e|--------|---------|----------|---------|---------|---------|---------|---------|
B|--------|---------|----------|---------|---------|---------|---------|---------|
G|-5----9-|--7------|----------|--5------|--5----9-|--7------|---------|--5------|
D|-5----9-|--7----2-|--3----5--|--5------|--5----9-|--7----2-|--3----5-|--5------|
A|-3----7-|--5----2-|--3----5--|--3------|--3----7-|--5----2-|--3----5-|--3------|
E|--------|-------0-|--1----3--|---------|---------|-------0-|--1----3-|---------|

This is the chords I use:
   C    Em  Dadd9 Em   F    G     C         C    Em  Dadd9 Em   F    G    C
   H*   Q    H*   Q    H*   Q     W         H*   Q    H*   Q    H*   Q    W
e|-3----0-|--0----0-|--1----3--|--0------|--3----0-|--0----0-|--1----3-|--0------|
B|-1----0-|--3----0-|--1----3--|--1------|--1----0-|--3----0-|--1----3-|--1------|
G|-0----0-|--0----0-|--2----4--|--0------|--0----0-|--0----0-|--2----4-|--0------|
D|-2----2-|--4----2-|--3----5--|--2------|--2----2-|--4----2-|--3----5-|--2------|
A|-3------|--5----2-|--3----5--|--3------|--3------|--5----2-|--3----5-|--3------|
E|--------|-------0-|--1----3--|---------|---------|-------0-|--1----3-|---------|




Outro:
This is the bassline with power chords:
   C    Em   D    Em   F    G     C         C    Em   D    Em   F    G    C
   H*   Q    H*   Q    H*   Q     W         H*   Q    H*   Q    H*   Q    W
e|--------|---------|----------|---------|---------|---------|---------|---------|
B|--------|---------|----------|---------|---------|---------|---------|---------|
G|-5----9-|--7----9-|--10---12-|--5------|--5----9-|--7------|---------|--5------|
D|-5----9-|--7----9-|--10---12-|--5------|--5----9-|--7----2-|--3----5-|--5------|
A|-3----7-|--5----7-|--8----10-|--3------|--3----7-|--5----2-|--3----5-|--3------|
E|--------|---------|----------|---------|---------|-------0-|--1----3-|---------|

This is the chords I use:
   C    Em  Dadd9 Em  F/C  G/D    C         C    Em  Dadd9 Em   F    G    C
   H*   Q    H*   Q    H*   Q     W         H*   Q    H*   Q    H*   Q    W
e|-3----0-|--0----0-|--1----3--|--0------|--3----0-|--0----0-|--1----3-|--0------|
B|-1----0-|--3----0-|--1----3--|--1------|--1----0-|--3----0-|--1----3-|--1------|
G|-0----0-|--0----0-|--2----4--|--0------|--0----0-|--0----0-|--2----4-|--0------|
D|-2----2-|--4----2-|--3----5--|--2------|--2----2-|--4----2-|--3----5-|--2------|
A|-3------|--5------|--3----5--|--3------|--3------|--5----2-|--3----5-|--3------|
E|--------|---------|----------|---------|---------|-------0-|--1----3-|---------|


Listen to the bass in the song and you'll get it :)




Dadd9 (x54030)
F/C   (x33211)
G/D   (x55433)


[Verse 1]

C                Dadd9           
Broken mornings, broken nights and 
F             C
broken days in between
C                Dadd9   
Open ground, the sky is open  
F             C
makes an open sea


[Pre-Chorus]

Am                       C
Just like in fiction, in every addiction
   Am               F
Oh fantasy's taking over, awake me


[Chorus]

C                         Dadd9
I've been looking for the conqueror
        F                       C
But you don't seem to come my way
C                         Dadd9
I've been looking for the only one
        F                       C
But you don't seem to come my way


[Verse 2]

C              Dadd9
Broken me and broken them and
F              C
You are broken too
C                Dadd9
Open ears, their eyes are open
F                C
Makes me call for you


[Pre-Chorus]

    Am                   C
But there's no seduction only destruction
   Am              F
Oh fantasy take me over and break me


[Chorus]

C                         Dadd9
I've been looking for the conqueror
        F                    G   C
But you don't seem to come my way
C                         Dadd9
I've been looking for the only one
        F                    G   C
But you don't seem to come my way

C                 Em      Dadd9
I've been looking for the conqueror
Em      F                    G   C
But you don't seem to come my way
C                 Em      Dadd9
I've been looking for the only one
Em      F                    G   C
But you don't seem to come my way


[Bridge]

  C              Dadd9
I feel ali-li-live
  Am             Dadd9
I feel ali-li-live
  F              G
I feel ali-li-live
  F              G
I feel ali-li-live


[Chorus]

C                         Dadd9
I've been looking for the conqueror
        F                    G   C
But you don't seem to come my way
C                         Dadd9
I've been looking for the only one
        F                    G   C
But you don't seem to come my way

C                 Em      Dadd9
I've been looking for the conqueror
Em      F                    G   C
But you don't seem to come my way
C                 Em      Dadd9
I've been looking for the only one
Em      F                    G   C
But you don't seem to come my way


[Outro]

  C            Em   Dadd9  
I feel ali-li-live
Em F/C          G/D  C
I  feel ali-li-live
  C            Em   Dadd9
I feel ali-li-live
Em F            G    C Dadd9 F G C
I  feel ali-li-live



Please leave a comment with any inputs or just a rating! :)

More chords by AURORA: