Audra Mae - The Real Thing Guitar Chords

Audra Mae

alternative roots rock

Chords:
Audra Mae and the Almighty Sound
The Real Thing

Easy song for a beginner to learn or for an advanced player to jam with

Intro: palm muted

e|------------------------------------------|          |------------------------------------------|
B|------------------------------------------|          |------------------------------------------|
G|------------------------------------------|          |------------------------------------------|
D|------------------------------------------|    x 4   |------------------------------------------|    x 1
A|------------------------------------------|          |---3---4---5-5-5-5-5-5-5-5-5-5-5-5-5-5----|
E|---3---4---5-5-5-5-5-5-5-5-5-5-5-5-5-5----|          |------------------------------------------|


e|------------------------------------------|
B|------------------------------------------|
G|------------------------------------------|
D|------------------------------------------|    x 1
A|---5---6---7-7-7-7-7-7-7-7-7-7-7-7-7-7----|
E|------------------------------------------|

e|------------------------------------------|          |------------------------------------------|
B|------------------------------------------|          |------------------------------------------|
G|------------------------------------------|          |------------------------------------------|
D|------------------------------------------|    x 2   |------------------------------------------|    x 1
A|------------------------------------------|          |---3---4---5-5-5-5-5-5-5-5-5-5-5-5-5-5----|
E|---3---4---5-5-5-5-5-5-5-5-5-5-5-5-5-5----|          |------------------------------------------|


e|------------------------------------------|
B|------------------------------------------|
G|------------------------------------------|
D|------------------------------------------|    x 1
A|---5---6---7-7-7-7-7-7-7-7-7-7-7-7-7-7----|
E|------------------------------------------|



Verse and chorus  (same rhythm but with power chords and muted notes)
listen to song for when to mute / switch to intro

e|----------------------------------------------------------------------|
B|----------------------------------------------------------------------|
G|-----------------------------5---------7---7--------7--------9---9----|
D|---7--------5---7---7--------5---------7---7--------7--------9---9----|
A|---7--------5---7---7--------3---------5---5--------5--------7---7----|
E|---5--------3---5---5-------------------------------------------------|
                      

More chords by Audra Mae: